E-Chords
Mc Japa

Perereca Suicida(Chords)

Mc Japa

roll up this ad to continue

Key: C
 
                 C                           F 
E|-1-0-1-0-1-0-0---0-----0---0---0-----0---1-| 
B|-1-0-1-0-1-0-1---1-----1---1---1-----1---1-| 
G|-------------0---0-----0---0---0-----0---2-| (4x) 
D|-------------2---2-----2---2---2-----2---3-| 
A|-------------3---3-3---3-3-3---3-3---3-3-3-| 
E|-----------------------------------------1-| 
C F Perereca suicida, se joga na pica, se mata na pica C F Perereca suicida, se joga na pica, se mata na pica C F Perereca suicida, se joga na pica, se mata na pica C F Perereca suicida, se joga na pica, se mata na pica DEDILHADO VERSO:
 
     C               F 
E|---------------------------------| 
B|-----1-------1-------1-------1---| 
G|-----0-------0-------2-------2---| 
D|---2---2---2---2---3---3---3---3-| 
A|-3-------3-----------------------| 
E|-----------------1-------1-------| 
C Aponta pra mim que eu te mato F Eu te mato, eu te mato C Eu te furo com a piroca F E te sufoco com meu saco C Eu te furo com a piroca F E te sufoco com meu saco C O meu bonde tá passando F Ele nunca tá de toca C Se tu vacilar com ele F É pirocada a queima roupa C Nunca duvide do bonde F E também nunca se iluda C O meu bonde é tipo assim... C F Mata a perereca e seu cu é testemunha C F Perereca suicida, se joga na pica, se mata na pica C F Perereca suicida, se joga na pica, se mata na pica C F Perereca suicida, se joga na pica, se mata na pica C F Perereca suicida, se joga na pica, se mata na pica (C F)
share this page

See Also: