E-Chords
Matrioska

Ora Che(Chords)

Matrioska

Key: Eb
Verse 
Eb 
Ora che, amarsi Ŕ darsi e non chiedere  
         Gm 
restare insieme Ŕ restarci stando alle regole  
      Cm                                    Bb 
o-o-o-ora che, non basta pi¨ avermi accanto avermi soltanto 
Eb  
ora che, nuotiamo sincronizzati ormai  
              Gm     
da un fiume d'obblighi a un mare ingombro di voglie e guai  
      Cm                                  Bb 
o-o-o-ora che, tutto ci scorre intorno, amare Ŕ darsi il buon giorno  

Ab                         Bb 
Ora che sembra tutto scontato 
            Eb       Bb                 Cm 
mi perdo un attimo, rubo ricordi al passato 
 Ab                           Bb 
prima che un'altra luna svanisca  
          Eb           Bb             Cm 
riemergo dentro te, rinasco alla tua vista  
          Fm                Bb 
e tu non puoi sentirti da sola  
              Eb      Bb          Cm 
consumare la sera, contando ogni ora  
           Fm               Bb        Fm    Bb 
ma tu non puoi ingannar la realtÓ... la veritÓ  

Solo 1 
  Eb                        Cm                 Fm                   Bb  


e|-------------6-5-6--10--6/8-6-------6--------------------------------------| 
B|-------8-7-8------------------6-7-8-------------------7/8------------------| 
G|-8-7-8--------------------------------8-7-8--7-----5-8----8-5-7--5-4-3-----| 
D|-----------------------------------------------8-6-------------------------| 
A|---------------------------------------------------------------------------| 
E|---------------------------------------------------------------------------| 

   Eb                        Cm                Fm                   Bb  

e|----------------11----------------11---------------13-12-11-------8-7-6----| 
B|------------6-8---------------6-8----7/8---11-10-9----------8-7-6----------| 
G|---7-8-7-8-----------7-8-7-8-------------8---------------------------------| 
D|-8-----------------8-------------------------------------------------------| 
A|---------------------------------------------------------------------------| 
E|---------------------------------------------------------------------------| 
Verse Eb Credimi cambiare tutto Ŕ impossibile Gm se non cambiare Ŕ tra tutti il mio peggior limite Cm Bb guardami, oggi Ŕ chiaro e sincero ieri non cambierÓ non cambierÓ Eb Ora che assaggio ogni giornata se Gm si specchia dentro te solo se canta con te Cm o-o-o-ora che, amarsi Ŕ darsi e non chiedere Bb restare insieme Ŕ trovarsi dentro le nuvole Ab Bb Credimi non ti do per scontata Eb Bb Cm nemmeno un attimo neanche a fine giornata Ab Bb guardami, il fuoco brucia e divampa Eb Bb Cm ritorna a casa, dai, i miei occhi son la tua stanza Fm Bb e tu non puoi sentirti da sola Eb Bb Cm consumare la sera, contando ogni ora Fm Bb Fm Bb ma tu non puoi ingannar la realtÓ... la veritÓ Solo 2 Eb Cm Fm Bb x2 Outro Fm Bb e tu non puoi sentirti da sola Eb Bb Cm consumare la sera, contando ogni ora Fm Bb Fm Bb ma tu non puoi ingannar la realtÓ... la veritÓ

roll up this ad to continue

share this page

See Also: