E-Chords
Matheus Vps

Uma Moeda Pra Mim(Chords)

Matheus Vps

Key: C
        

              C                Dm  
Era pra ser nós três pra sempre 
          Am7           Bb7M  
E agora estou sozinho aqui 
        C              Dm          Am7        Bb7M  
Já não sei por quanto tempo ainda irei resistir 
        Gm          Dm          Gm         Dm  
Mesmo à beira do abismo, lutarei até o fim 
             F        Gm7       A7       Dm7  
Será que alguém irá jogar uma moeda para mim 

Dm                Gm           Bb7M        C  
   Me sinto mais forte do que jamais eu estive 
Dm                    C        Bb7M   A7  
   E ainda assim sou tão fraco, tão fraco 
Dm           Gm        Bb7M     C  
   Mesmo quebrado seguirei meu caminho 
Dm                   C   Bb7M          A7  
   Em meio aos estilhaços, coração em pedaços 

Dm                F            Bb7M                   A7  
   Tanto eu já perdi, já não aguento mais me despedir 
Dm            F        Bb7M       A7    Dm  
   E mesmo assim, meus olhos eu preciso abrir 

          C              Dm  
Era pra ser nós três pra sempre 
          Am7           Bb7M  
E agora estou sozinho aqui 
        C              Dm          Am7        Bb7M  
Já não sei por quanto tempo ainda irei resistir 
        Gm          Dm          Gm         Dm  
Mesmo à beira do abismo, lutarei até o fim 
             F        Gm7       A7       Dm7  
Será que alguém irá jogar uma moeda para mim 

tab - solo 

Parte 1 de 2 
E|------------------------------------------10--------| 
B|----8/10---8/6/8---6/5/6---5------------------------| 
G|5/7---------------------------5--5/7--10------10----| 
D|----------------------------------------------------| 
A|----------------------------------------------------| 
E|----------------------------------------------------|
Parte 2 de 2 
E|8-------6/5-----------------------------------------| 
B|-------------6/8/6---5------------------------------| 
G|------------------------5/7---9---10---12---15/14---| 
D|----------------------------------------------------| 
A|----------------------------------------------------| 
E|----------------------------------------------------|

roll up this ad to continue

share this page

See Also: