E-Chords
Matheus Marcolino

Beijo Técnico(Chords)

Matheus Marcolino

roll up this ad to continue

Key: D
Intro 

                       D       
E|---------------------------------------------------| 
B|--/3--3--3---5/7--7/8--7--7/5--5h7p5--3------------| 
G|---------------------------------------------------| 
D|--/4--4--4---5/7--7/9--7--7/5--5------4------------| 
A|---------------------------------------------------| 
E|---------------------------------------------------|
                     G                    Gm7       
E|---------------------------------------------------| 
B|--/3--3--3---5/7--7/5--5/3--3----------------------| 
G|--------------------------------0--0h2--2/3--------| 
D|--/4--4--4---5/7--7/5--5/4--4----------------------| 
A|---------------------------------------------------| 
E|---------------------------------------------------|

Verse 1:

D Até quando vai querer negar? A Até quando vai esconder o que grita no olhar? Em Até quando vai fingir que não? G Procurando uma desculpa, uma explicação D Para de marra pra cima de mim, que não vai colar A Esse papo manjado de que não quer se machucar Em Fica repetindo aí que não me quer na sua vida G Vai tentando, tentando, quem sabe um dia você acredita
D Então foi um acidente ontem quando a gente se beijou? A Tropeçou e caiu abraçada comigo e fez amor? Em Olhar apaixonado era encenação? G Mas deixa eu te lembrar que beijo técnico não tem língua, não D E foi um acidente ontem quando a gente se beijou? A Tropeçou e caiu abraçada comigo e fez amor? Em Olhar apaixonado era encenação? G Mas deixa eu te lembrar que beijo técnico não tem língua, não
Solo
                       D       
E|---------------------------------------------------| 
B|--/3--3--3---5/7--7/8--7--7/5--5h7p5--3------------| 
G|---------------------------------------------------| 
D|--/4--4--4---5/7--7/8--7--7/5--5------4------------| 
A|---------------------------------------------------| 
E|---------------------------------------------------|
                   A          
E|---------------------------| 
B|--/10--10--8--7--7--5--5---| 
G|---------------------------| 
D|--/11--11--9--7--7--6--6---| 
A|---------------------------| 
E|---------------------------|
                   Em                              G       
E|-----------------------------------------------------------| 
B|------8p7------------------------------8p7-----------------| 
G|----------9p7--7h9--7-7/9------------------9p7--7h9--7-7/9-| 
D|--7h9----------------------12/9----7h9---------------------| 
A|-----------------------------------------------------------| 
E|-----------------------------------------------------------|
                   Gm7          
E|---------------------------| 
B|--0h2h3---2h3p2p0--2-------| 
G|---------------------------| 
D|---------------------------| 
A|---------------------------| 
E|---------------------------|
D E para de marra pra cima de mim, que não vai colar A Esse papo manjado de que não quer se machucar Em Fica repetindo aí que não me quer na sua vida G Vai tentando, tentando, quem sabe um dia você acredita
D Então foi um acidente ontem quando a gente se beijou? A Tropeçou e caiu abraçada comigo e fez amor? Em Olhar apaixonado era encenação? G Mas deixa eu te lembrar que beijo técnico não tem língua, não D Foi um acidente ontem quando a gente se beijou? A Tropeçou e caiu abraçada comigo e fez amor? Em Olhar apaixonado era encenação? G Mas deixa eu te lembrar que beijo técnico não tem língua, não D Foi um acidente ontem quando a gente se beijou? A Bm7 A/C# Tropeçou e caiu abraçada comigo e fez...? Em Olhar apaixonado era encenação? G Mas deixa eu te lembrar que beijo técnico não tem língua, não D G D Até quando vai querer negar?
share this page

See Also: