E-Chords
Masayuki Suzuki

Daddy! Daddy! Do!(Chords)

Masayuki Suzuki

roll up this ad to continue

Key: G#m
Tab - Intro 

E|------------------------------------------| 
B|------------------------------------------| 
G|------------------------------------------| 
D|---------1---2-4--------------------------| 
A|--2---4-----------------------------------| 
E|------------------------------------------|
C Daddy! Daddy! Do! B7 D# Em7 A7 Hoshii no sa anata no subete ga Am7 B7 Ai ni dakare giragira Moete shimaitai ( Em7 A7 D G ) ( D/F# F Em7 A7 ) ( D G D/F# F ) Em7 Am7 Kawaige na kiss de 1, 2, 3 D G D/F# Mesen sorashite zurui yo ne F Em7 Am7 Hoteridasu boku no kimochi D D# Em7 Moteasobu mitai de C D Oikakecha dame na no wa D# Em7 D Wakatteru demo murisa C G/B Am7 G Ichido fumidaseba modore__nakute F Kamen wa nugisutete B7 Ikenai koto made F B7 Asobi ga maji ni naru
Tab - Solo 

E|------------------------------------------| 
B|------------------------------------------| 
G|------------------------------------------| 
D|---------1---2-4--------------------------| 
A|--2---4-----------------------------------| 
E|------------------------------------------|
C Daddy! Daddy! Do! B7 D# Em7 A7 Hoshii no sa anata no subete ga Am7 B7 Em7 Damasa retara sore demo ii F B7 Motto furuwasete C B7 D# Misete kure boku dake ni Em7 A7 Egao no ura made Am7 Ai ni dakare B7 Giragira moete shimaitai ( Em7 A7 D G ) ( D/F# F Em7 A7 ) ( D G D/F# F ) Em7 Am7 Chucho nado shinai no no no D D/F# Nido to aenai hito dakara F Em7 Am7 Koukai ni kureru no nara D D# Em7 Koi no hi ni yakaretai C D Waza to deshou nagashime ga D# Em7 D Itoshisa wo shigeki suru C G/B Am7 G Sotto furikaeru utsukushisa ni F Kokoro wa tsukamarete B7 Kokyuu ga tomatte F B7 Asobi ga maji ni naru C Daddy! Daddy! Do! B7 D# Em7 A7 Butsuketai omoi no subete wo Am7 B7 Em7 Kirei na mono dake ja nakute F B7 Kiken na negai mo C B7 D# Tomenaide sono koe ga Em7 A7 Boku wo tsurete iku Am7 B7 Ai ni dakare giragira moete shimaitai ( Em7 D ) C G/B Anata dake to iu kuchibiru ga Bm7 D# Em7 D Yasashiku hohoemu tabi C#m7(5-) C Bm7 A#7M Nomikomarete izanawarete Am7 D D# E F Michi no sekai furete C Daddy! Daddy! Do! C#7 F F#m7 B7 Saigo made anata ni yudanete Bm7 C#m7 F#m7 Kowareru nara sore demo ii G C#7 Motto kuruwasete D Dm Misete kure boku dake ni E F F#m7 Kokoro no oku made Bm7 C#7 Ai ni dakare giragira moetai C#7 F Inochi hateru yoake made Final F#m7 B7 E A E/G# G F#m7 B7 E A E/G# G F#m7 E F#m7 E F#m7 F#m7 E F#m7 C#7 F#m7
share this page

See Also: