E-Chords
Mary's Band

Coliforme Fecal(Chords)

Mary's Band

Key: Eb
 OBS.: A afinação em Eb 

Intro:E

   E       G       E         G
e-------------------------------------
b-------------------------------------a 1º vez sem 
g-------------------------------------    acordes
d----------------2----------------2---
a-----------3-5--------------3-5------
e---0-3-5----------0---3-5------------

e-------------------------------------
b-------------------------------------
g-------------------------------------
d---5h6h5p----------------------------
a----------6--3-5-3----7--------------
e-------------------3--5--------------
A E residos epelidos pelo organismo G D veias estufadas e o vermelho da cara A E odor reluzindo pelo recinto G D mau cheiro empreguinado por todo lado A E formas engraçadas sendo formadas G D um marrom meio fosco saindo do corpo A E restos de comida isso me intriga G D muita alteração na regirida nação A eu que como eu que faço E vejo meu corpo transformando pedaços G trancafiado aqui dentro tudo cheira mal D é isso que eu chamo de um bom G D coliforme fecaaaaaal A G A coliforme fecal G D A E G D coliforme fecaaaal A olhando o azulejo E a frieza que vejo G D olhando para baixo vejo bolas de caixo A D a água que cai levando a lama que sai G D a fixa expressa so o alivio interessa A E observando os conteudos se percebe os miudos G D instestino trabalhado e o bum bum desabafado A E papel ja passado e lá tudo ralado G D nenhuma alteração no grao do milho ou feijao A eu que como eu que faço E vejo meu corpo transformando pedaços G trancafiado aqui dentro tudo cheira mal D é isso que eu chamo de um bom G D coliforme fecaaaaaal A G A coliforme fecal G D coliforme fecaaaaaal A G A coliforme fecal G D coliforme fecaaaaaal A G A coliforme fecal G D A E G D coliforme fecaaaal (INTRO)REPETE TUDO

roll up this ad to continue

share this page

See Also: