E-Chords
Marinês

Baião De Viola(Chords)

Marinês

roll up this ad to continue

Key: Ab
Intro A7  A 
        A7  A 
        A7  A 


Solo 
e|---------3-2----------------| 
B|-----2--------------2---3-2-| 
G|---2---2----------2---2---2-| (4x) 
D|--------------------------2-| 
A|-0-----0--------0-----0-----| 
E|----------------------------| 
A7 D7 A7 Eu gostaria que um dia D7 A7 Vocês fossem visitar D Bm A cidade de pedreira E A Eu sei que iam gostar Am Dm A festas de são Benedito E A E os violeiros a cantar Solo: A7 A A7 A A7 A A7 É triste mais é bonito cego na viola Que vai pra porta da igreja pra pedir esmola D7 Ele não tem a luz dos olhos mais tem inspiração A7 (SOLO) E faz um verso a cada um que passa e da um tostão E A Deus lhe pague a sua esmola Deus lhe de muita alegria B7 No reino do céu se veja A E A Como toda a sua família F#m A Conserve a luz dos teus olhos E A Senhora Santa Luzia
Solo
e|---------3-2----------------| 
B|-----2--------------2---3-2-| 
G|---2---2----------2---2---2-| (4x) 
D|--------------------------2-| 
A|-0-----0--------0-----0-----| 
E|----------------------------|
D7 E se for na Trizidela A D7 Lá tem muito o que se vê A Am Já tenho uma ponte nova G Am Que é bonita como o que E se for lá no biano Cair dentro do forró Esquece que o mundo existe G Am Só lembra o romper do sol Dm Porque as negas é cheirosa E A Do mocotó ao gogó
Solo
e|---------3-2----------------| 
B|-----2--------------2---3-2-| 
G|---2---2----------2---2---2-| (4x) 
D|--------------------------2-| 
A|-0-----0--------0-----0-----| 
E|----------------------------|
share this page

See Also: