E-Chords
Marco Barrientos

Dios De Los Ejércitos(Chords)

Marco Barrientos

Key: A
Intro: 
A  -----  x1 
Cm - G# - A# - G7 - A#     x4 


Estrofa: 

Cm           G#        A#          G7         A# 
Dios de los ejércitos,    poderoso en batalla 
Cm             G# 
¿Quién es como tú Señor? 
A# 
   El gran Yo Soy 

   e|----------------------------------------|| 
   B|----------------------------------------|| 
   G|-----------------7s8s7------------------|| 
   D|---------8h10----------8s10-------------|| 
   A|--8s10----------------------------------|| 
   E|----------------------------------------|| 
Cm G# Grande y temible rey A# G7 A# tu dominio no se acabará Cm G# con tu brazo de poder A# gobernarás Precoro: Cm G# Am #5 Eres el gran yo Soy, eres mi protector A# G7 Cm Eres mi fuerza, mi escudo y mi salvación G# Am #5 Y yo no temeré, en Ti yo confiaré A# G7 Cm Cm - G# - A# Y me levantaré con tu fuerza y poder...
Cm G# A# G# G7 Eres el todopoderoso, temible en batalla Cm G# A# G# G7 Y tu justicia es para siempre por todos los siglos
Estrofa: Cm G# A# G7 A# Dios de los ejércitos, poderoso en batalla Cm G# ¿Quién es como tú Señor? A# El gran Yo Soy
   e|----------------------------------------|| 
   B|----------------------------------------|| 
   G|-----------------7s8s7------------------|| 
   D|---------8h10----------8s10-------------|| 
   A|--8s10----------------------------------|| 
   E|----------------------------------------|| 
Cm G# Grande y temible rey A# G7 A# tu dominio no se acabará Cm G# con tu brazo de poder A# gobernarás Precoro: Cm G# Am #5 Eres el gran yo Soy, eres mi protector A# G7 Cm Eres mi fuerza, mi escudo y mi salvación G# Am #5 Y yo no temeré, en Ti yo confiaré A# G7 Cm Cm - Dm #5 - Cm/D# - Dm/E# Y me levantaré con tu fuerza y poder...
Cm G# A# G# G7 Eres el todopoderoso, temible en batalla Cm G# A# G# G7 Y tu justicia es para siempre por todos los siglos

roll up this ad to continue

share this page

See Also: