E-Chords
Marco Barrientos

Desborde(Chords)

Marco Barrientos

Key: Cm
INTRO 

D|-----------5-5| 
A|3/5-5-3-5--3-3| x8 
E|1/3-3-1-3-----| 
VERSO Cm Nuestro rostro al cielo levantamos Cm Fm Ante el trono declaramos digno es nuestro Rey Jesús Cm Bb Tu Sangre nuestro tesoro nuestra vida Cm Tuyos por siempre ser PRE-CORO Ab Cm Un Sacrificio al cielo estremeció
2° Guitarra 
  Eb    D   Cm  Eb    D   Cm  Eb    D   Cm  Eb    D   Cm 
G|8-8-8-7-7-5-5|8-8-8-7-7-5-5|8-8-8-7---5-5|8-8-8-7---5-5| 
D|X-X-X-X-X-X-X|X-X-X-X-X-X-X|X-X-X-X---X-X|X-X-X-X---X-X| 
A|6-6-6-5-5-3-3|6-6-6-5-5-3-3|6-6-6-5---3-3|6-6-6-5---3-3| 
E|-------------|-------------|-------------|-------------| 
Ab Bb La esperanza al mundo regresó
2° Guitarra 
  Eb    D   Cm  Eb    D   Cm    Bb 
G|8-8-8-7-7-5-5|8-8-8-7-7-5-5-5-3| 
D|X-X-X-X-X-X-X|X-X-X-X-X-X-X-X-X| 
A|6-6-6-5-5-3-3|6-6-6-5-5-3-3-3-1| 
E|-------------|-----------------| 
CORO Cm Gm Ab Fm Cm Gm Ab Bb Llena esta tierra con tu gloria oh Dios renuévanos Cm Gm Ab Fm Eb G Moja esta tierra con tus ríos de vida eterna INTRO x4 VERSO PRE-CORO CORO x2 PUENTE Cm Que se borde el río de Tu Unción Cm Que Tu Reino venga avívanos Cm Que se borde el río de Tu Unción Cm Bb Bb-Bb-Bb--Bb-Bb-Bb Que Tu Reino venga avívanos
2° Guitarra con WAH. 

  Cm  Bb     Cm    Bb          Bb     Bb 
G|5-5-3-5-5--5-5-5-3-5-5|    G|3-3-3--3-3-3| 
D|5-5-3-5-5--5-5-5-3-5-5|    D|3-3-3--3-3-3| 
A|3-3-1-3-3--3-3-3-1-3-3| x8 A|1-1-1--1-1-1| 
E|----------------------|    E|------------| 
CORO x2 OUTRO (Intro) x4

roll up this ad to continue

share this page

See Also: