E-Chords
Marco Barrientos

Cree, Todo Es Posible(Chords)

Marco Barrientos

Key: Dm
Intro- 

Guitarra 

e|------------|--------------| 
B|------------|--------------| 
G|--7-7----5--|---5----5-----| 
D|-------7----|------7-------|   x8 
A|------------|--------------| 
E|------------|--------------| 

(noten ke en la ultima vuelta termina con la primera 
 nota como si fuera a empezar de nuevo) 

luego vuelve a empezar ahora si con toda la musica 




e|------------|--------------| 
B|------------|--------------| 
G|--7-7----5--|---5----5-----| 
D|-------7----|------7-------|   x8 
A|------------|--------------| 
E|------------|--------------| 
Toda la estrofa esta en Dm7 Dm7 Cree, todo es posible SI puedes creer cree, todo es posible pon tu fe en el Cree, todo es posible SI puedes creer cree, todo es posible Dm7 Nunca falla F nunca te dejará C Nunca cambia Gm7 a tu lado estará Dm7 Nunca falla F Gm7 nunca te olvidará Asus4 A Mi Dios es fieeel. Intemedio Dm7 Am7 Creo en tu amor , creo en tu perdón Gm7 Am7 Creo en el poder de tu cruz Jesús Dm7 Am7 Gm7 Mi salvador mi sanador Am7 Creo en ti

roll up this ad to continue

share this page

See Also: