E-Chords
Márcia Fellipe

Quem Me Dera (part. Jerry Smith)(Chords)

Márcia Fellipe

roll up this ad to continue

Key: G#m
Intro E  F#  D#m  G#m 

E|-11-14-11-14-16-14--11-14-11-14-16-14----19-18-18---| 
B|----------------------------------------------------| 
G|----------------------------------------------------| 
D|----------------------------------------------------| 
A|----------------------------------------------------| 
E|----------------------------------------------------|
E|-----11-11------------------------------------------| 
B|-16---------14-14-16--------------------------------| 
G|----------------------------------------------------| 
D|----------------------------------------------------| 
A|----------------------------------------------------| 
E|----------------------------------------------------|
E|-11-14-11-14-16-14--11-14-11-14-16-14----19-18-18---| 
B|----------------------------------------------------| 
G|----------------------------------------------------| 
D|----------------------------------------------------| 
A|----------------------------------------------------| 
E|----------------------------------------------------|
E|------11-11----------------11-----------------------| 
B|-16---------14-14-16----------14-12-11--------------| 
G|---------------------------------------13-----------| 
D|----------------------------------------------------| 
A|----------------------------------------------------| 
E|----------------------------------------------------|
Primeira Parte E F# Não tô me reconhecendo D#m G#m Tô em casa em pleno feriado E F# G#m Até o garçom sentiu a minha falta e já ligou preocupado Pré-Refrão E É que agora só penso em você F# D#m Não é que eu esteja apaixonada G#m E Eu tô falando sério F# Eu não quero ninguém G#m Mas se você quiser, eu quero
E Dormir de conchinha F# Nem pisar em festa D#m Deus me livre G#m Mas quem me dera E Postar foto juntos F# Contatinho já era D#m Deus me livre G#m Mas quem me dera
( C D Bm Em ) ( C D Bm Em ) Primeira Parte C D Não tô me reconhecendo Bm Em Tô em casa em pleno feriado C D Em Até o garçom sentiu a minha falta e já ligou preocupado Pré-Refrão C É que agora só penso em você D Bm Não é que eu esteja apaixonada Em C Eu tô falando sério D Eu não quero ninguém Em Mas se você quiser, eu quero
C Dormir de conchinha D Nem pisar em festa Bm Deus me livre Em Mas quem me dera C Postar foto juntos D Contatinho já era Bm Deus me livre Em Mas quem me dera C Eu tô com pressa D Mas se você vier Em O meu coração espera C Eu tô com pressa D Mas se você vier Em O meu coração espera
share this page

See Also: