E-Chords
Marching Orders

Nation Of Ghosts(Chords)

Marching Orders

roll up this ad to continue

Key: F#
Intro 

Gtr. 1 
e|-------------------------------|-------------------------------| 
B|-------------------------------|-------------------------------| 
G|-6-x-x-x-x-x-6-7-x-7-6-x-4-x-x-|-------------------------------| 
D|-------------------------------|-7-x-x-x-x-x-x-x-x-x-x-x-x-x-x-| x6 
A|-------------------------------|-------------------------------| 
E|-------------------------------|-------------------------------| 

Gtr. 2 
e|-9-----------9-10----9---7---9-|-9-----------9-10----9---7-----| 
B|-------------------------------|----------------------------10-| 
G|-------------------------------|-------------------------------| 
D|-------------------------------|-------------------------------| x2 
A|-------------------------------|-------------------------------| 
E|-------------------------------|-------------------------------| 
verse 1 F#5 E5 A5 A5 Another factory has shut its doors F#5 E5 A5 A5 As the company sells its soul to foreign shores F#5 E5 A5 A5 Because there's more money to be made F#5 E5 A5 A5 When it's made from the sweat of foreign slaves Chorus F#5 E5 A5 A5 We'll be a nation, a nation of ghosts F#5 E5 A5 A5 A nation, a nation of ghosts F#5 E5 A5 A5 We'll be a nation, a nation of ghosts F#5 E5 A5 A5 A nation, a nation of ghosts verse 2 F#5 E5 A5 A5 A nation of ghosts and forgotten dreams F#5 E5 A5 A5 A nation of empty factories F#5 E5 A5 A5 You can build your mansion on a hill F#5 E5 A5 A5 With a view of the country that you've killed Chorus F#5 E5 A5 A5 We'll be a nation, a nation of ghosts F#5 E5 A5 A5 A nation, a nation of ghosts F#5 E5 A5 A5 We'll be a nation, a nation of ghosts F#5 E5 A5 A5 A nation, a nation of ghosts Interlude (Play Gtr. 1 Intro x4) C#5 D5 B5 C#5 A nation of forgotten dreams C#5 D5 B5 A5 A wasteland of empty factories C#5 D5 B5 C#5 A nation of forgotten dreams C#5 D5 B5 A5 A wasteland of empty factories Chorus F#5 E5 A5 A5 We'll be a nation, a nation of ghosts F#5 E5 A5 A5 A nation, a nation of ghosts F#5 E5 A5 A5 We'll be a nation, a nation of ghosts F#5 E5 A5 A5 A nation, a nation of ghosts
share this page

See Also: