E-Chords
Marcelo Wall

Palavras(Chords)

Marcelo Wall

roll up this ad to continue

Key: A
Intro F#m G#m A Bm A F#m 

F#m 
Agora o que me resta são os pensamentos 

Suas fotos pelo chão 
    E 
E uma lágrima a rolar 
   B 
Não pude evitar 
 F#m 
Adoro esse seu jeito de amar sempre meu corpo 

Eu queria tanto 
                  E 
Que você me entendesse um pouco mais 
      B 
E voltasse atrás 
  D                  A 
Por isso escrevi essa canção 
    D              F#m 
Eu fiz pra poder te falar 
   D                      A/C#  F#m 
Palavras que tocam em seu coração 
     E           D            A/C# 
Te procuro sem saber aonde estás 

( F#m G#m A Bm A F#m ) 

 F#m 
Adoro esse seu jeito de amar 

Querida Mary 

Eu queria tanto 
                 E 
Que você me entendesse um pouco mais 
      B 
E voltasse atrás 
  D                  A 
Por isso escrevi essa canção 
    D              F#m 
Eu fiz pra poder te falar 
   D                      A  F#m 
Palavras que tocam em seu coração 
     E           D            A/C#  F#m 
Te procuro sem saber aonde estás 
E             D 
Grito por seu nome sem parar 
F#m              E 
Sem saber onde vou 
          D 
Te amo e peço pra voltar 
A            E  F#m 
Pelo nosso amor 

Solo F#m  E  B 

Guitarra 1 

Parte 1 De 3 

E|----------------------------------------------------------------9| 
B|-9h10-10-10-9-9-9-9h10p9-7-7-7-9-9/10--10-10-9h10p9--10-12-10-12-| 
G|---------------------------------------------------11------------| 
D|-----------------------------------------------------------------| 
A|-----------------------------------------------------------------| 
E|-----------------------------------------------------------------| 

Parte 2 De 3 

E|-9-9-9-----------------------------------------------------------| 
B|------12-12-10h12-10-10-9h10-9-9-9-------------------------------| 
G|-------------------------------------9-9-9-8-9h11---9p8-9/11-----| 
D|-------------------------------------------------9\-x-------9\\--| 
A|----------------------------------------------------x------------| 
E|-----------------------------------------------------------------| 

Parte 3 De 3:Final 

E|-----------------------------------------------------------------| 
B|------------------------10p9----12p10p9/12-15~~------------------| 
G|-----8-9p8-----11-9-8-------11-9---------------------------------| 
D|-9-11------11-9------11------------------------------------------| 
A|-----------------------------------------------------------------| 
E|-----------------------------------------------------------------| 

Guitarra 2 

Parte 1 De 2 

E|-----------------------------------------------------------------| 
B|-12h14-14-14-12-12-12-12p14-10-12-12/14--14-14-12h14p12--14-15-14| 
G|-------------------------------------------------------14--------| 
D|-----------------------------------------------------------------| 
A|-----------------------------------------------------------------| 
E|-----------------------------------------------------------------| 


Parte 2 De 2 

E|---12--12-12-12--------------------------------------------------| 
B|-15------------15-15-14h15-14-14-12h14-12-12-12------------------| 
G|-----------------------------------------------------------------| 
D|-----------------------------------------------------------------| 
A|-----------------------------------------------------------------| 
E|-----------------------------------------------------------------| 
D A Por isso escrevi essa canção D F#m Eu fiz pra poder te falar D A/C# F#m Palavras que tocam em seu coração E D A F#m Te procuro sem saber aonde estás Uh, Uh, Uhhh
share this page

See Also: