E-Chords
Marc Ferr

In The Darkened Room(Chords)

Marc Ferr

roll up this ad to continue

Key: Em
Intro: Em7  C9  D  C9  Em7 

SOLO!! 

E|---------------------|------------------------| 
B|---------------------|------------------------| 
G|-------7-7-----------|------7-9-7-7-----------| 
D|--7/9------9/7-7/9---|--7/9---------7/9-7-(5)-| 
A|---------------------|------------------------| 
E|---------------------|------------------------| 

E|------------------|---------------------------| 
B|------------------|---------------------------| 
G|------7-----------|---------------------------| 
D|--7/9---9-7--5/7^-|-7/9-7-5-------------------| 
A|------------------|---------5/7---------------| 
E|------------------|---------------------------| 
() - pocional ^ - BEND, ou puxar a corda / - SLIDE, ou deslisar Em7 In a darkened room G Beyond the reach of god's faith D C9 Lies the wounded, shattered remains of a love betrayed Em7 And the innocence G Of a child is bought and sold D In the name of the damned C9 The rage of the angels left silent and cold Pré-Refrão: D Em7 Forgive me please G C9 For what I know not what I do D C9 How can I keep inside Em7 C9 The hurt I know is true?
C9 Tell me when the kiss Em7 Of love becomes a lie G That bears the scars of sin too deep D C9 Em7 To hide behind this fear of running unto you G Please let there be light
In a darkened room SOLO DO REFRÃO:
   C9		     Em7 
E|------3---2---3---|------3---2---3------------| 
B|----0---0---0---0-|----0---0---0---0----------| 
G|------------------|---------------------------| 
D|------------------|---------------------------| 
A|--3---------------|---------------------------| 
E|------------------|--0------------------------| 


   G		     D 
E|------3---2---3---|------3---0---2------------| 
B|----0---0---0---0-|----0---3---3---0----------| 
G|------------------|---------------------------| 
D|------------------|--0------------------------| 
A|------------------|---------------------------| 
E|--3---------------|---------------------------| 



   C9		     Em7 
E|------3---2---3---|------3---2---3------------| 
B|----0---0---0---0-|----0---0---0---0----------| 
G|------------------|---------------------------| 
D|------------------|---------------------------| 
A|--3---------------|---------------------------| 
E|------------------|--0------------------------| 

   G 
E|--3---| 
B|--3---| 
G|--0---| 
D|--0---| 
A|--0---| 
E|--3---| 
(Em7 C9 D C9 Em7) Em7 G All the precious times have been put to rest again D And the smile of the dawn C9 Brings tainted lust singing my réquiem Em7 G Can I face the day when I'm tortured in my trust D And watch it crystallize C9 While my salvation it crumples to dust D C9 Em7 C9 Why can't I steer the ship before it hits the storm D C9 Em7 G I've fallen to the sea but still I swim for shore
C9 Tell me when the kiss Em7 Of love becomes a lie G That bears the scars of sin too deep D C9 Em7 To hide behind this fear of running unto you G Please let there be light D In a darkened room
share this page

See Also: