E-Chords
Malfunkshun

I Wanna Be Yo Daddy(Chords)

Malfunkshun

roll up this ad to continue

Key: D#
Intro x2 

D#||--------------------------7--------------------| 
A#||----7------------------------------------------| 
F#||------9-8-8h9p8--------------------------------| 
C#||----------------9--9----9----9-----------------| 
G#||---------------------7---------7---------------| 
D#||-----------------------------------------------| 

D#||--------------------------------------------| 
A#||----7---------------------------------------| 
F#||------9-8-8h9p8-----------------------------| 
C#||----------------9--9----9-------------------|  (dont play last note on 4th measure) 
G#||---------------------7----7-----------------| 
D#||--------------------------------------------| 


Verse x2  

  (e power chords into 2nd part of intro) 
       ^   ^   ^   ^     ^   ^   ^   ^     ^   ^   ^   ^   ^ 
D#|-------------------------------------------------------------| 
A#|-------------------------------------------------------------| 
F#|--9-9-9-9-9-9-9-9-----9-9-9-9-9-9-9-----9-9-9-9-9-9-9---9-9--| 
C#|--9-9-9-9-9-9-9-9-----9-9-9-9-9-9-9-----9-9-9-9-9-9-9---9-9--| 
G#|--7-7-7-7-7-7-7-7-----7-7-7-7-7-7-7-----7-7-7-7-7-7-7---7-7--| 
D#|-------------------------------------------------------------| 
      
D#||----------------------------|------------------| 
A#||----7-----------------------|------------------| 
F#||------9-8-8h9p8------------.|------------------| 
C#||----------------9-9----9---.|------------------| 
G#||--------------------7----7--|------------------| 
D#||----------------------------|------------------| 


Chorus 

D#|------------------||------------------| 
A#|------------------||------------------| 
F#|------------------||--9---------------| 
C#|--7---------------||--9---------------| 
G#|--7---------------||--7---------------| 
D#|--5---------------||------------------| 


Outro 

  whole note into increasing speed pattern below   
      x4           X5         
D#|--------|--------------|---5-------------------| 
A#|--------|-----7--------|-----------------------| 
F#|--9-----|-------9-8-9--|-----------------------| 
C#|--9-----|--------------|-----------------------| 
G#|--7-----|--------------|-----------------------| 
D#|--------|--------------|-----------------------|  
share this page

See Also: