E-Chords
Magicka

Aldrheim(Chords)

Magicka

roll up this ad to continue

 
E|--10--7--7-8-10-||--7--3----------||----------------||----------------| 
B|----------------||--------3-------||--3-5-8--10--8--||--7--5--7-------| 
G|----------------||----------------||----------------||----------------| 
D|----------------||----------------||----------------||----------------| 
A|----------------||----------------||----------------||----------------| 
E|----------------||----------------||----------------||----------------| 
 
E|--10--7--7-8-10-||--7--3----------||----------------||----------------| 
B|----------------||--------3-------||--3-5-8--10--8--||--7--3--7-------| 
G|----------------||----------------||----------------||----------------| 
D|----------------||----------------||----------------||----------------| 
A|----------------||----------------||----------------||----------------| 
E|----------------||----------------||----------------||----------------| 
 
E|----------------||----------------||--7-5----5--7---||--8--10--8------| 
B|--3-5-8--10--8--||--7--5--8-------||------8---------||----------------| 
G|----------------||----------------||----------------||----------------| 
D|----------------||----------------||----------------||----------------| 
A|----------------||----------------||----------------||----------------| 
E|----------------||----------------||----------------||----------------| 
 
E|--3--5--7--8----||--7--5--3-------||----------------||----------------| 
B|----------------||----------------||--3--5--7--8----||--7--8--10------| 
G|----------------||----------------||----------------||----------------| 
D|----------------||----------------||----------------||----------------| 
A|----------------||----------------||----------------||----------------| 
E|----------------||----------------||----------------||----------------| 
 
E|----------------| 
B|----------------| 
G|----------------| 
D|----------------| 
A|----------------| 
E|----------------| 
 
E|----------------| 
B|----------------| 
G|----------------| 
D|----------------| 
A|----------------| 
E|----------------| 
Continua...
share this page

See Also: