Machuca

El Juego(Chords)

Machuca

Key: D

roll up this ad to continue

	        
Riff 1 

e --1--x--x--x--x--1--x--x--x--x--1--x--x--x--x-----------------------
B --1--x--x--x--x--1--x--x--x--x--1--x--x--x--x-----------------------
G --2--x--x--x--x--2--x--x--x--x--2--x--x--x--x-----------------------
D --3--x--x--x--x--2--x--x--x--x--3--x--x--x--x--0--2--0--------------
A --3--x--x--x--x--3--x--x--x--x--3--x--x--x--x-----------0--3--2--0--
E --1--x--x--x--x--1--x--x--x--x--1--x--x--x--x-----------------------

Riff 2 

e --1---1---1----------------------------
B --1---1---1----------------------------
G --2---2---2----------------------------
D --3---2---3---0--2--0---------------7--
A --3---3---3------------0--3--2--0---7--
E --1---1---1-------------------------5--
D F Parte 1: A B Conosco bien el juego A B Un dulce juego A B Conosco bien el juego A B D F Dentro de Miii oooh yeah A B Se de unos trucos A B Soy todo un brujo A B Conosco bien los trucos A B D F Dentro de Tiii oooh yeah Coro: C G A See ya se lo que daría por estar contigo C G F* A Noo se lo que tu me harias C G A See ya se lo que daría por estar contigo C G F* Riff 1 Noo se lo que tu me harias (Se Repite toda la parte 1 y el Coro) Durante el Solo: G A B A B A F# F* A B A B A B F-D# Coro: C G A See ya se lo que daría por estar contigo C G F* A Noo se lo que tu me harias C G A See ya se lo que daría por estar contigo C G F* Noo se lo que tu me harias A F* Me lo darias A F* Riff 2 Con todo el dia
Acordes Usados 

   D  F   A  B  C  G  F*  D#  F# 
G -7--10---------5---------8---------
D -7--10--7--10--5--5--3---8---4-----
A -5--8---7--10--3--5--3---6---4-----
E --------5--8------3--1-------2-----

See Also: