E-Chords
Luxúria

Ódio(Chords)

Luxúria

Key: C#5
ÓDIO (2) - LUXÚRIA

Intro: C#5 G#5 
 
BAIXO 4X
G|--------------------------------------------------------------------------------- 
D|-------2---2-----2------2---2---2--------------------------------------------- 
A|--4-4---4---4-4---4-4---4---4--------3---3------3-----3--3----------------
E|-------------------------------------4-4---4---4-4---4-4---4--4-2-4---------
C#5 G#5 Durante muito tempo eu construí uma história em cima de um castelo destruído C#5 G#5 E pra fugir dessa realidade dura eu já encontrei mais de mil motivos C#5 G#5 Agora essas palavras de pessoas santas parecem música nos meus ouvidos C#5 G#5 Já que ficou quase insuportável ouvir a voz dos meus olhos aflitos A5 C#5 De tanto chorar depois que a festa acabar A5 E5 Se eu não me matar, talvez eu peça ajuda para voltar A5 F#5 De um lugar da onde despenquei feito um anjo que morreu de raiva A5 F#5 A5 G#5 Na queda eu me despedacei mas eu já me permito mudar Intro: C#5 G#5 C#5 G#5 Olhei ao meu redor para reconstruir meu castelo caído C#5 G#5 Pra viver de bons momentos sem ter que ter os olhos escondidos C#5 G#5 Ja fiz até um testamento que não tem nada, nada, nada escrito C#5 G#5 Já que a minha maior herança é a que eu vou levar comigo A5 C#5 Pra evoluir, depois que o terror passar A5 E5 Se eu não suportar talvez eu peça ajuda pra voltar A5 F#5 De um lugar da onde despenquei feito um anjo que morreu de raiva A5 F#5 A5 G#5 Na queda eu me despedacei mas eu já me permito mudar C#5 E5 F#5 A5 Esse meu ódio é... C#5 E5 F#5 A5 Meu ódio é... C#5 F#5 A5 G#5 O veneno que eu tomo querendo que o outro morra Intro: C#5 G#5 Solo: C#5 F#5 A5 G#5 4X G#5 4x
e|---\16----16--------------------\-------------------------------------- 
b|---\--17----17--------16-----19-\--21-19-21-19-21-19-21-19-21-19-21-19-
G|---\----18----16-14-18--17-20--\---------------------------------------
D|-----------------------------------------------------------------------
A|-----------------------------------------------------------------------
E|-----------------------------------------------------------------------
 
C#5 E5 F#5 A5
Esse meu ódio é...

e|--------------------------------------------------------------------- 
b|---------------------------------------------------------------------
G|----6--8--9--11---13---14---14---13----------------------------------
D|---------------------------------------------------------------------
A|--4--6--7--9---11---12---12---11-------------------------------------
E|---------------------------------------------------------------------

roll up this ad to continue

share this page

See Also: