E-Chords
Luxúria

Fechar os olhos(Chords)

Luxúria

Key: Bb
Solo: 
 
e | --0----1-------------0------------------------------------- 
B | ---------------------------3------------------------------- 
G | ------------3-------------------2--------------------------      3x 
D | ----------------------------------------------------------- 
A | ----------------------------------------------------------- 
E | ----------------------------------------------------------- 
 
Mais rápido: 
 
e | --0--1---------0--1-------------0--1---------0--1---------- 
B | ------------------------------------------2------------2--- 
G | ---------3-------------3-----------------------------------             
D | ----------------------------------------------------------- 
A | ----------------------------------------------------------- 
E | ----------------------------------------------------------- 
 
Agora entra a musica. Se você tocar esse solo com essa cifra que 
tem ai vai ficar massa! Boa sorte! 
Intro: Bb Dm Bb Dm Hoje eu corro Pra chegar na hora Bb Dm Tenho sono no lugar onde você mora Bb Dm Beirando a calçada Contando os passos Bb Dm Senti o gosto de te dar um bom lugar pré-Refrão: Gm Bb Dm Você me cobra olhar nos olhos Gm Bb Dm Pra enxergar o lado de fora Refrão: Bb A Dm Feche as portas quero dar mais uma volta A Bb Você me deixa sem ar F A Dm Pra conter o meu impulso A Bb vou fechar os olhos e desviar A Da sua rota arriscada Bb Dm Bb Dm Hoje eu corro Fugitiva da verdade Bb Dm Eu perco o sono Escondo a minha idade Bb Dm Beirando a calçada Contando os passos Bb Dm Senti o gosto de te dar um bom lugar Gm Bb Dm Você me cobra olhar nos olhos Gm Bb Dm Pra enxergar o lado de fora Bb A Dm Feche as portas quero dar mais uma volta A Bb Você me deixa sem ar F A Dm Pra conter o meu impulso A Bb vou fechar os olhos e desviar A Da sua rota arriscada Gm Bb Gm Bb Gm Bb Gm Dm Bb A Dm Feche as portas quero dar mais uma volta A Bb Você me deixa sem ar F A Dm Pra conter o meu impulso A Bb vou fechar os olhos e desviar A Da sua rota arriscada Bb Dm Bb Hoje eu corro Dm Pra chegar na hora Bb Eu perco o sono Dm quando você vai embora Bb Dm Você vai embora por Irlla!

roll up this ad to continue

share this page

See Also: