E-Chords
Luxúria

Don Juan(Chords)

Luxúria

Key: Em
Chegou o Don Juan da parada... 

 
    Em               C                        G           Am 
E|---------------------------------------------------------------------------| 
B|-----------------------------3-3-3--------------3-3-3----------------------| 
G|------4--4--4--4--5--5--5--5-------5-5-5-4-4--4-------4-2-2-2-2-4-4-2------| 
D|----2-----------------------------------------------------------------5-2--| 
A|---------------------------------------------------------------------------| 
E|---------------------------------------------------------------------------| 
 

 
    Em                C                        G           Am 
E|---------------------------------------------------------------------------| 
B|-----------------------------3-3-3--------------3-3-3----------------------| 
G|------4--4--4--4--5--5--5--5-------5-5-5-4-4--4-------4-2-2-2-2-4-4-2------| 
D|----2-----------------------------------------------------------------5-2--| 
A|---------------------------------------------------------------------------| 
E|---------------------------------------------------------------------------| 
Em C G Alô mulherada o Don Juan já chegou Am O Ban ban ban da balada Só quer te dar amor. Em C Eu tenho cara de santo G Mas de bobo, não tenho nada Riff da metade e do refrão da música.... Am Aonde eu chegou sou o rei da balada D|----5---5---5-7-5---5---5---5-7-4---4---4---4-5-4---4---4---4-5---| Em C A|--7---7---7-------7---7---7-------5---5---5-------5---5---5-----7-| Se você está com deprê G E está sendo mal amada Repetir o riff até o fim do refrão... Am Em Comigo é assim lapada, lapada, lapada, lapada... C G Comigo é assim lapada, lapada, lapada, lapada... Am Em Comigo é assim lapada, lapada, lapada, lapada... C G Comigo é assim lapada, lapada, lapada, lapada... (Repete a música 2x)

roll up this ad to continue

share this page

See Also: