E-Chords
Luis Santiago

Presencia(Chords)

Luis Santiago

Key: A
Intro 

     A        E          D        E 
e|--------------|-----------------|------------| 
B|-----5--------|--5--------------|------------| 
G|---6--------4-|----7-6----------|------------| 
D|----------7---|--------7----4---|----7-7-4---| 
A|--------------|---------------7-|--7-------7-| 
E|--------------|-----------------|------------| 

     A      E          D          E        A E D E 
e|-------------|-----------------| 
B|-------------|--5--------------| 
G|----4-7-6----|----7-6----------| 
D|----------7--|--------7----4---| 
A|-------------|---------------7-| 
E|-------------|-----------------|
A Bm Cuantas pisadas tu dejaste en el polvo de ayer E A Para que yo pudiera amarte hoy. Esas palabras tú sembraste al tiempo de amar Esa semilla se ha hecho planta hoy. G A El cielo se empaño tu trono era madera G D E Y tu voz quebrantada fue por mí. CORO: A D E /Cuan fuerte es la presencia de tu amor A D E Más tibia que el calor de la mañana F#m D F#m E Más fresca que la lluvia, más dulce que la miel es tu amor/ A Que sana el corazón. /A, D, E/x2
  A         E        C#m        D     E 
e|--5-4--------|------4-4-------5-5---9-7-5--| 
B|------5h7-5--|--5h7-------5h7--------------| 
G|-------------|-----------------------------| 
D|-------------|-----------------------------| 
A|-------------|-----------------------------| 
E|-------------|-----------------------------|
A Bm Cuantas pisadas tu dejaste en mi corazón E A Hoy tengo cielo y un glorioso Dios Misericordia y verdad me rodean hoy Porque en mi pusiste de tu amor. G A El cielo celebró tu trono te esperaba G D E Y esa tumba venciste por mí. CORO: A D E /Cuan fuerte es la presencia de tu amor A D E Más tibia que el calor de la mañana F#m D F#m E Más fresca que la lluvia, más dulce que la miel es tu amor/ A Que sana el corazón. Ojalá que les guste, un saludo a todos. atte. _/ºE>ºR

roll up this ad to continue

share this page

See Also: