E-Chords
Luis Miguel

Separados(Chords)

Luis Miguel

Key: Bm
                        =INTRO= 

(TECLADO BAJO LENTO marcando) 
  Bm   A   G     A      Bm   A   G     A 
E-------------------------- -------------------------- 
B-------------------------- -------------------------- 
G-------------0---------2-- -------------0---------2-- 
D--4-----2----------4-2---- --4-----2----------4-2---- 
A-------------------------- -------------------------- 
E-------------------------- -------------------------- 


(TECLADO ALTO NORMAL) 
  Bm       A          G           A 
E--2-----2--0--- ------0----- ------------ 
B------3-------- ----2---3--- ------3-2--- 
G----4---------- --2--------- --0-2------- 
D--------------- ------------ ------------ 
A--------------- ------------ ------------ 
E--------------- ------------ ------------ 


(TROMPETA AGUDA)              (TECLADO BAJO LENTO marcando) 
                     Bm        Bm   A   G     A 
E--14-15-14----12-14--------  E--2-----0----3-----2-0--5--- 
B-----------15-------15-12--  B--3-----2----3----------5--- 
G---------------------------  G---------------------------- 
D---------------------------  D---------------------------- 
A---------------------------  A---------------------------- 
E---------------------------  E---------------------------- 


(TROMPETA AGUDA) 
                    Bm           A            G     A 
E--14-15-14----12-14----- --------12--- -----12-14------17--- 
B-----------15-------15-- --14-15------ --15----------------- 
G------------------------ ------------- --------------------- 
D------------------------ ------------- --------------------- 
A------------------------ ------------- --------------------- 
E------------------------ ------------- ---------------------
=Estrofas= (I Parte) A Bm CUÁNTAS NOCHES ME ACUERDO DE TI, G CUÁNTAS RISAS ME ABURRO A MORIR, A F#m CUÁNTO BUEN AMIGO ES ENEMIGO Bm Bm DE PRONTO... SIN TI... A Bm CUÁNTAS VECES NO QUIERO DORMIR, G ESPERANDO UNA HISTORIA GENIAL, Em G PERO NUNCA TOCA LA NOCHE LOCA A SIN TI..... =CORO= A D A SEPARADOS COMO TONTOS, SEPARADOS POR QUE SÍ, Em G Bm G A SEPARADOS POR QUE HAY ALGO QUE PAGAR... 2 rasgueos A D A marcados SEPARADOS POR EL FRÍO, SEPARADOS AL FINAL, G A Bm ES ASÍ..... ES LO NORMAL..... *(Se Toca la INTRO)* =Estrofas= (II Parte) A Bm CUÁNTAS VECES ME SIENTO FATAL, G POR NO HABLAR LO QUE TENGO QUE HABLAR, A F#m POR CALLAR TU NOMBRE EN LA SOMBRA Bm Bm CON HAMBRE DE TI... A Bm CUÁNTAS VECES TU NOMBRE ESCRIBÍ, G CUÁNTAS VECES TU NOMBRE BORRÉ, Em G Y TE TENGO A MANO Y NO TE LLAMO LA NUNCA... =CORO= A D A SEPARADOS COMO TONTOS, SEPARADOS POR QUE SÍ, Em G Bm G A SEPARADOS POR QUE HAY ALGO QUE PAGAR... OOOH OOOH A D A SEPARADOS POR EL FRÍO, SEPARADOS AL FINAL, G A Bm ES ASÍ..... ES LO NORMAL..... *Se repite la INTRO* *Se repite el Coro*

roll up this ad to continue

share this page

See Also: