E-Chords
Luis Angel

Devuélveme(Chords)

Luis Angel

Key: F
e-----1--3--5--3--5--8----1--3--1--3--6--0--1-- 
B--1------------------------------------------- 
G---------------------------------------------- 
D---------------------------------------------- 
A---------------------------------------------- 
E---------------------------------------------- 


e--1--5--8--10--8--10--12--13--8--12--13--6---5--6--5--3--3-- 
B------------------------------------------------------------ 
G------------------------------------------------------------ 
D------------------------------------------------------------ 
A------------------------------------------------------------ 
E------------------------------------------------------------
F C Dm No es la primera vez que lloro así por ti Bb Am Bb puedes decir nomás que ya terminó A#m C lo sé, se te acabó el amor. F C Dm Pero antes de partir devuélveme la fe Bb Am Bb devuélveme la piel que en tu piel invertí A#m C valor, para poder seguir. Coro: F C Dm Devuélveme las caricias que yo te enseñé Bb Am el sudor que en tu cuerpo dejé Gm C el amor que en tu boca gasté. F C Dm Devuélveme esas noches que no descansé Bb Am por besarte una vez y otra vez Gm C la ternura que en ti derroché.
e-----1--3--5--3--5--8----1--3--1--3--6--0--1-- 
B--1------------------------------------------- 
G---------------------------------------------- 
D---------------------------------------------- 
A---------------------------------------------- 
E---------------------------------------------- 


e--1--5--8--10--8--10--12--13--8--12--13--6---5--6--5--3--3-- 
B------------------------------------------------------------ 
G------------------------------------------------------------ 
D------------------------------------------------------------ 
A------------------------------------------------------------ 
E------------------------------------------------------------
F C Dm Es fácil para ti decir adiós, adiós Bb Am Bb se te acabó el amor se fue con el sol A#m C y yo, lo tengo que entender. Coro: F C Dm Devuélveme las caricias que yo te enseñé Bb Am el sudor que en tu cuerpo dejé Gm C el amor que en tu boca gasté. F C Dm Devuélveme esas noches que no descansé Bb Am por besarte una vez y otra vez Gm C la ternura que en ti derroché. F C F Mis ganas de vivir devuélveme la fe.

roll up this ad to continue

share this page

See Also: