E-Chords
Luis Alberto Spinetta

Fuji(Chords)

Luis Alberto Spinetta

Key: D
Spinetta y los socios del desierto - 1997 - Estrelicia Mtv Unplugged 

Para tocar esta cancion se debe afinar la 6ª cuerda en RE. 

-Intro: 

   D
e|------------------------------------------------------------------| 
B|-10-------12h10-9-------10h9-7-------10h7-5-------7h5-3-------5h3-| 
G|-------11-------------9------------7------------6-----------4-----| 
D|-----0--------------0------------0------------0-----------0-------| 
A|---0--------------0------------0------------0-----------0---------| 
D|-0--------------0------------0------------0-----------0-----------| 


e|---------2--2-------------------------------| 
B|-2---2h3----3-------------------------------| 
G|---2--------2-------------------------------| 
D|------------0-------------------------------| 
A|--------------------------------------------| 
D|-0------------------------------------------| 

Has dejado noches, noches del adios. 
La certeza de tus ojos cree que me voy... 

   D
e|---------------------------3---2---------| 
B|-7---5-7---5---5-----3---3---3-3---------| 
G|---6---------4---4-----3-------2---------| 
D|-0-------0-0-------0-0---------0---------| 
A|-----------------------------------------| 
D|-----------------------------------------| 

Has dejado un cielo para amanecerlo a la vez, allí... 

  Bm7        Bm7/G      Bm7/F#  Em7          A7sus4
e|---------2-----2-----------------------------------------| 
B|-3-----3---3-----3---2-----2---3-----3-----------3-------| 
G|-----2-------------2-----2---------0---0-------0---0-----| 
D|---4---------4---------2---------0-------0---2-------2---| 
A|-2-----------------------------2-----------0-------------| 
D|-----------5---------4-----3-----------------------------|
-Intro Cruzas sólo puentes, puentes entre tí. Las flores y el silencio son cosas de tu amor. Has dejado un río, para atravesarlo a la vez, allí. -Intro -Estribillo: Bm Y es que me espera A y cobijo me dará Bm entre sus manos A hasta que luego venga Fuji Bm con el mundo. A Bm Y me hace las señales con las piernas A G desde un punto de la calle, desolada, Em G y es que puedo soportar esta distancia, Em y es que te has impreso en mi como una luz. -Punteo: Cruzas sólo puentes, puentes entre tí. Las flores y el silencio son cosas de tu amor. Has dejado un río, para atravesarlo a la vez, allí. -Estribillo: Y es que me espera y cobijo me dará entre sus manos hasta que luego venga Fuji con el mundo. Y me hace las señales con las piernas desde un punto de la calle, desolada, y es que puedo soportar esta distancia, y es que te has impreso en mi como una luz.

roll up this ad to continue

share this page

See Also: