E-Chords
Luis Alberto del Paraná

Mi Dicha Lejana(Chords)

Luis Alberto del Paraná

Key: C
Capo on 1st fret
e|-4-1-4-1-4-|-1---1-----|-----------| 
B|-----------|---3---3-1-|-1---1-----| 
G|-----------|-----------|---2---2---| 
D|-----------|-----------|---------3-| 
A|-----------|-----------|-----------| 
E|-----------|-----------|-----------| 
C G C Sublime añoranza, guarda el alma mía C7 F y trae la tristeza de mi soledad. Fm C Pienso en el futuro ya sin esperanza, Am Dm G C porque en la distancia tú me olvidarás. C G C Si en tu cabecita llevas todavía C7 F algo de la dicha de nuestro querer, Fm C piensa que yo lejos debo sufrir tanto Am Dm G C sin ningún consuelo en mi padecer. C A7 Dm ¿Por qué dejaré de añorarte? G C Rohayhueteíva che mborayhumi. C A7 Dm Podré sucumbir, tal vez, G C aheka raságui ne kunu'mi.
e|------------|-7---------|-5----5-----|-8-5-8-5-8-|-5---5-----|-----------| 
B|-5-8----5-8-|------8--8-|------------|-----------|---7---7-5-|-5---5-----| 
G|------------|-----------|------------|-----------|-----------|---6---6---| 
D|------------|-----------|------------|-----------|-----------|---------7-| 
A|------------|-----------|------------|-----------|-----------|-----------| 
E|------------|-----------|------------|-----------|-----------|-----------| 
C G C Hoy que ya la sombra del martirio invade C7 F el triste santuario de mi alma en dolor, Fm C surge tu recuerdo como una esperanza, Am Dm G C trayéndome el néctar de tu boca en flor. C G C Suspirando evoco tantos días felices C7 F de dicha infinita que no olvidaré Fm C y en mis noches tristes de nostalgia llenas Am Dm G C por seguir viviendo en ti pensaré. C A7 Dm ¿Por qué dejaré de añorarte? G C Rohayhueteíva che mborayhumi. C A7 Dm Podré sucumbir, tal vez, G C aheka raságui ne kunu'mi.

roll up this ad to continue

share this page

See Also: