E-Chords
Lost Dogs

Smokescreen(Chords)

Lost Dogs

roll up this ad to continue

Key: D
Tuning: Standard 

Intro: (use these spellings of the chords throughout the song) 
    D          D/F#       G            G   Am7 
e|---------------------|-----------------|-------------------| 
B|--3------------3-----|--3------------3-|--1----------------| 
G|--2------------2-----|--0------------0-|--0----------------| 
D|--0------------0-----|--0------------0-|--2----------------| 
A|---------------------|--2------------2-|--0----------------| 
E|---------------2-----|--3------------3-|-------------3--3--| 

   Am7     Am7    D       D  (repeat) 
e|--------------------|-----------------| 
B|--1-------1-----3---|-h-3-------------| 
G|--0-------0-----2---|---2-------------| 
D|--2-------2-----0---|---0-------------| 
A|--0-------0---------|-----------------| 
E|----3-3-------------|-----------------| 
D D/F# G Paid all my money and what did I get? Am7 D Left here a smolder like some cigarette D D/F# G G I smoked every pack of lies made yet Am7 D I never read that little warning that said: C G I'd be an eternal soul with an eternal crave. Am7 D Cashed every premium for this flip top grave C G When I locked my heart and threw away the key Am7 C Now I'm left with nothin' D Nothin' but me
share this page

See Also: