E-Chords
Los Rodriguez

El Tiempo Lo Dirá(Chords)

Los Rodriguez

Key: A
Intro: A E 3 veces. 

      B             E   A  E 
Es temprano para el sol 
     B            E            A  E 
pero tarde para hablar mi amor 
                  B            A       G#m       F#m 
tan tarde que el aliento de la noche parece terminar  
     B           E   A  E 
en palabras nada mas. 

  B           E   A  E 
Palabras nada mas 
     B          E   A  E 
pero para no pensar 
                   B         A          G#m       F#m 
sera que entre las hojas que nunca se cayeron estara 
   B          E    A  E  
perdida la verdad. 

E F#m G#m     A                 B    
      A estas horas pierdo la memoria 
               E     A  E 
si no estoy contigo 
 F#                                 B   A  B 
amigo, predi mi camino en el ultimo bar 
    A             E          A            B     
y pase la noche entera preguntandole a la luna  
      A          G#m    G#m  A  B  
si puedo volver atras... 
      B          E    A  E 
si puedo volver atras 


Repite Intro. 

     B           E    A  E 
Pero no me contestaba  
     B          E     A  E  
pero no le dijo nada 
                 B        A 
sino rompio el silencio sera  
            G#m          F#m 
que no le hable con claridad 
       B            E    A  E 
cuando casi sale el sol. 

       B            E    A  E 
Cuando casi sale el sol 
     B           E    A  E 
a la hora del perdon 
                B           A        G#m        F#m  
la hora que te arranca lentamente tu ronca confesion 
     B          E     A  E  
y te nubla la vision. 
E  F#m G#m      A                 B   
        A estas horas pierdo la memoria  
                 E     A  E 
y el resto es historia 
    F#                                 B 
camarero, perdi mi dinero jugandome el sueldo  
    A       E         B         E    A  E 
con profesionales del juego de azar. 

                  
E----------------------------------------------------- 
B----------------------------------------------------- 
G----------------------------------------------------- 
D-----6-7-7--7-6-------6-7-7--7-6--------------------- 
A---7----------7-----7------------9-7----------------- 
E-7----------------7--------------------7-0----------- 


E----------------------------------------------------- 
B----------------------------------------------------- 
G----------------------------------------------------- 
D-----------------9-----------------11-10-----9------- 
A-9(10)9-7-9-9/11---9(10)9-7-9-9/11-------7/9--------- 
E----------------------------------------------------- 


E----------------------------------------------------- 
B----------------------------------------------------- 
G----------------------------------------------------- 
D-----------6-7-6--------------6-7-6------------------ 
A-----6-7-9-------9------6-7-9-------9-7-9-7-6---6---- 
E-7-9----------------7-9-----------------------9---9-7 


E--------------------------------------------------------- 
B--------------------------------------------------------- 
G-----------------------8-6-----6------------------------- 
D-----------6-7-6----9------9-7---9-7-6-9-7-6-7-6--------- 
A-----6-7-9-------7/9-----------------------------9-7-6-7- 
E-7-9----------------------------------------------------- 

      B           E      A  E 
Volvi casi sin consuelo 
      B          E       A  E 
donde siempre terminare 
                      B 
donde guardo lo que encuentro  
      A              G#m           F#m 
donde duermo y me despierto con el sol 
      B            E       A  E 
donde siempre te esperare. 

     B            E     A  E  
Pero nadie me esperaba 
     B          E   A  E 
pero nadie se reia 
                   B           A 
solamente lo que habia era una carta  
       G#m           F#m 
y propaganda en el buzon 
     B              E    A  E 
y la carta (no) era mia. 

E F#m G#m       A                   B 
       Nunca es tarde si viene a buscarte  
               E   A  E 
la dicha algun dia 
   F# 
el mar limpiara las heridas  
               B    A  B 
con agua y con sal... 
  A       E         A        B 
y sera la hora de empezar de nuevo 
   A        G#m  G#m A B 
de no verte mas 
     B       E         A        B 
sera casi la hora de empezar de nuevo 
   A        G#m  G#m A B 
de no verte mas 
      B         E         A        B 
viene siendo la hora de empezar de nuevo  
   A        G#m  G#m A B 
de no verte mas 
               E 
el tiempo lo dira. 

Final como Intro.

roll up this ad to continue

share this page

See Also: