E-Chords
Los Reno

Siempre Te Amare Solo(Chords)

Los Reno

Key: Eb
La versióm original esta en Eb, pero lo puse en E 
para una digitación más comoda.  

Introduccíon:                                     
                                                  
   E         E7        A         Am        E      
E ----0----0----0----0----0----0----0----0----0-- 
B ---0----0----3----3----2----2----1----1-----0-- 
G --1----1----1----1----2----2----2----2------1-- 
D -2----2----2----2----2----2----2----2-------2-- 
A --------------------------------------------2-- 
E -----------------------------------------0--0--
|E G#m Gm F#m B7 x2 E G#m Vuelve a mi dulce bien A Am que bien sabes que te espero E y yo nunca G#m Gm F#m B7 E G#m Gm F#m B7 nuca jamás te olvidaré E G#m Al besar siento yo A Am que te entrego toda el alma E por que es tuya G#m Gm F#m B7 E E7 y tuya será hasta el final A Am E Tu hermosura es como una rosa G#m F#m F#7 que me hace sentir locamente B C B B7 de pasión mi bien E G#m Vuelve a mi dulce amor A Am que bien sabes que te espero E pués yo nunca G#m Gm F#m B7 E B7 nuca jamás te olvidaré
Solo:                                             
                                                  
  B7                  E               G#m         
E ----------------------------------------------- 
B -------------7--------------------------------- 
G -----------4---------6-6-6--------------------- 
D -2/4-4-4-7------6-7-9-----9-7-6---------------- 
A --------------------------------9-7-9---------- 
E ----------------------------------------------- 
                                                  
                                                  
                     A                            
E ----------------------------------------------- 
B ----------------------------------------------- 
G -------6h7-6----------6-6-6-6-6-6-6------------ 
D -6h7-9-------9-7-6-7--7-9-7-9-7-9-7--10-------- 
A ----------------------------------------------- 
E ----------------------------------------------- 
                                                  
                                                  
   Am                    E                        
E --------------------------0-------------------- 
B --------------------------0-------------------- 
G -9--9--9--9--9--9--9------1-------------------- 
D -10-12-10-12-10-12-10-----2-------------------- 
A --------------------------2-------------------- 
E -----------------------0--0--------------------
E G#m Gm F#m B7 E E7 A Am E Tu hermosura es como una rosa G#m F#m F#7 que me hace sentir locamente B C B B7 de pasión mi bien E G#m Vuelve a mi dulce amor A Am que bien sabes que te espero E pués yo siempre G#m Gm F#m B7 E siempre a ti te amaré B7 E C E E6 Siempre te amaré

roll up this ad to continue

share this page

See Also: