E-Chords
Los Morros Del Norte

Dos Botellas De Mezcal(Chords)

Los Morros Del Norte

roll up this ad to continue

Key: G
Intro: 

|-7-9-7-4-7--9-7-4-7-9-7-4-7-| 
|-7-9-7-5-7--9-7-5-7-9-7-5-7-| 
|----------------------------| 
|----------------------------| 
|----------------------------| 
|----------------------------| 

|-9-7-9-7-12-12-11-7---------| 
|-9-7-9-7-12-12-11-7---------| 
|----------------------------| 
|----------------------------| 
|----------------------------| 
|----------------------------| 

|-11-11-11-7-11-7-9-4--------| 
|-11-11-11-7-11-7-9-5--------| 
|----------------------------| 
|----------------------------| 
|----------------------------| 
|----------------------------| 
G Cuando me muera, como te agradeceria D G que pusieras en mi tumba, dos botellas de mezcal. Porque se que de morirme de una cruda, D sabes bien que es culpa tuya, G por no poderte olvidar. Todas las noches, cuando agarro la botella D G yo te miro dentro ella, y me pongo a platicar. Al rato siento, que me abrazas y me aprietas D G Cual si fuera cosa sierta. Te amo y te amo y no es verdad D Cuando al fin vuelvo, de mis locos pensamientos. G Empiezan los sufrimientos, porque te busco y no estas. De mis ojos, empieza brotar el llanto porque. D G porque yo te quiero tanto y no lo puedo evitar. Todas las noches, cuando agarro la botella D G yo te miro dentro ella, y me pongo a platicar. Al rato siento, que me abrazas y me aprietas D G Cual si fuera cosa sierta. Te amo y te amo y no es verdad D Cuando al fin vuelvo, de mis locos pensamientos. G Empiezan los sufrimientos, porque te busco y no estas. De mis ojos, empieza brotar el llanto porque. D G porque yo te quiero tanto y no lo puedo evitar.
share this page

See Also: