E-Chords
Los Amantes de Lola

La Flor De Bagdad(Chords)

Los Amantes de Lola

roll up this ad to continue

Key: A
bueno pues esta rola es una de mis favoritas,  
por cierto ya tengo el solo de hombres y locos 
y si a alguien le interesa puede escribirme 
a (signo_sdhotmail.com). 

la rola empieza con la bateria y el teclado 
y los fills que da a el principio no los  
mando por que no los tengo bien pero solo 
hace una barra en lam y va acomodando las  
cuerdas conforme el acorde, pero ahi les va 
lo principal los acordes y el solo. 
cuando empieza a cantar solo puntea los  
acordes, recomiendo escuchar la rola 
para que vean a que me refiero. 


(verso A 
  Am 
pocos saben lo que  
     F 
al este a sucedido,  
G 
se venden sue*os 
          Em 
y ritos sin crimen y castigo 


(verso A 
en el templo del placer  
y la codicia 
los mercaderes venden 
un tesoro muy antiguo 


(coro) 
Am            F 
a todos cambia 
               G 
a todos quema 
a todos calla  
Em 
la flor de bagdad      2 times 


(verso A 
dentro el sue*o 
se convierte en pesadilla 
y al despertar desierto 
eres presa de rapi*a 


(verso A 
si el perfume  
de la magia te seduce 
o el aroma de lo incierto 
llama, no hagas caso 


(coro) 


(solo) 
para el solo son los mismos acordes 
*pulloff     /slide 
4:---------------------------------------------------------- 
3:---------------------14--12-14-12-14-------------14------- 
2:--15*15*15*15*-15-12-----------------12-13-13-12----12-13- 
1:---------------------------------------------------------- 

4:---------------------------------------------------------- 
3:----------------14---------------------------------------- 
2:-15-13-12-13-12-----12-13-12---12-13-12------------------- 
1:-----------------------------12---------12-12-13-15/17-15- 

4:---------------------------------------------------------- 
3:----------------------------12-12/14---------------------- 
2:-------------------------------------13-12-13-15-13-12-13- 
1:-13-15-13-12-13-15-15-13-12------------------------------- 

4:----------------------------------------------------------- 
3:----14----------------------14----14-12-10-1210-9-10-9-7-9- 
2:-12----12-13-15-13-12-13-12----13-------------------------- 
1:----------------------------------------------------------- 

4:----------------------------------------------------------- 
3:-7-9/10-9-------------------------------------------------- 
2:----------12-13-12--12-13-12------------------------------- 
1:------------------12--------12-13-15-17--------------------
(coro) espero y les guste
share this page

See Also: