E-Chords
Los Amantes de Lola

Beber De Tu Sangre(Chords)

Los Amantes de Lola

roll up this ad to continue

Key: Dm
Intro: (Dm-A#-F-C) 


Dm       A#         F            C 
Tantas cosas en la mente me aterran 
Dm       A#        F             C 
El pensar en todo y nada de una ves 
Dm         A#         F          C 
El estar dormido, el soñar con frió 
Dm       A#         F          C 
En verdad es el perdido buscándote 
E-----------------------------------------------------------------------| 
B-----------------------------------------------------------------------| 
G-----------------------------------------------------------------------| 
D---3--2--3-----0-----3--2--3-----------3--2--3-----------3--2--3-3/5-/-|X2 
A---------------------------------1--------------0----------------------| 
E-----------------------------------------------------------------------| 
Dm A# F C Ver los muros de mi casa tan fría Dm A# F C Puedo pensar en algo para hacer calor Dm A# F C El moverme me hace titubear y dudar Dm A# F C Pero esa imagen no se ira jamas A# Dm C Dm El pensar en ti me hace recordar A# Dm C Dm El encanto que provoca tu fragilidad A# Dm C Dm Quedarme sentado aquí me puede congelar A# Dm C El hablar de ti me puede delatar Dm A# F C Podría gritar que me dejes beber de tu sangre Dm A# F C Podría gritar que me dejes beber de tu sangre Dm A# F C Podría gritar que me dejes beber de tu sangre Dm A# F C Podría gritar que me dejes beber de tu sangre
E-----------------------------------------------------------------------| 
B-----------------------------------------------------------------------| 
G-----------------------------------------------------------------------| 
D---3--2--3-----0-----3--2--3-----------3--2--3-----------3--2--3-3/5-/-|X2 
A---------------------------------1--------------0----------------------| 
E-----------------------------------------------------------------------| 
A# Dm C Dm El pensar en ti me hace recordar A# Dm C Dm El encanto que provoca tu fragilidad A# Dm C Dm Quedarme sentado aquí me puede congelar A# Dm C El hablar de ti me puede delatar Dm A# F C Podría gritar que me dejes beber de tu sangre Dm A# F C Podría gritar que me dejes beber de tu sangre Dm A# F C Podría gritar que me dejes beber de tu sangre Dm A# F C Podría gritar que me dejes beber de tu sangre
share this page

See Also: