E-Chords
Little Feat

Texas Twister(Chords)

Little Feat

Key: D
-- Written by Fred Tackett, Martin Kibbee, Bill Payne, Paul Barrere  
 
Moderately Fast x = 128 
 
      Gtr I 
|---------------------------------|--------------------------| 
|---------------------------------|--------------------------| 
|-----------------------------0---|-4p0---2-----0------------| 
|-------------0---0---------4-----|-----4---4p0---4p0-0h2----| 
|-----0---2-4---4---0h4---2-------|--------------------------| 
|-0h3---3---------------3---------|--------------------------| 
 
|--------------------------------------------| 
|--------------------------------------------| 
|--------------------------------------------| 
|-------------------0h2-2-2-2-2--------------| 
|-----0h2-2-2-2------------------------------| 
|-0h3p0---------0-0-------------0-0----------| 
 
 
|---------2-0-|-----------------|-----------| 
|---------3-2-|-----------------|-----------| 
|---------2-2-|-----------------|-----------| 
|-0h2-2-2-0-2-|-----0h2-2-2-----|---0h2-2-2-| 
|-----------0-|-----------------|-----------| 
|-------------|-0-0---------0-0-|-0-0-------| 
 
 
Verse Riff ? constant throughout 
 
||---------------------------------|--------------------------|| 
||---------------------------------|--------------------------|| 
||-----------------------------0---|-4p0---2-----0------------|| 
||-------------0---0---------4-----|-----4---4p0---4p0-0h2----|| 
||-----0---2-4---4---0h4---2-------|--------------------------|| 
||-0h3---3---------------3---------|--------------------------||
D NC The siren song is strong sometimes... on this Texas radio D NC They sure do play it hard and fast while they sell it soft and low D NC A silky voice she spoke to me from down in San Antone D NC G A G E 'It's ladies night in Italy, you gentlemen should know' E When I saw that neon sign, knew just where to go A E5 (5th fret) Her shoulders soft so I pulled off, her headlights aglow E (1st position) NC A bartender said to me, boy I want you to meet my sister NC D B A She's high-strung and a little young, but she's a real Texas twister A G D E A real Texas twister
E G A Asus A B Bsus I said 'How young is too young? How fast is too fast? B D E D E Well how high is too high? How high is too high?' E G A B B D E G A She said 'How long is this ride?' Well how long can you last? A B A E You're gonna find out mister, when you meet that Texas twister
Riff starts again

roll up this ad to continue

share this page

See Also: