E-Chords
Linnea Henriksson

Cecilia(Chords)

Linnea Henriksson

roll up this ad to continue

Key: E
         Am             G/B              C 
Minns du 94, hon tittar upp och fnissar till 
           F             G       Am  G 
Hon svarar ja, fast hon inte var född än 
         Am                  G/B               C       
Flickan äger världen, och ni blir ett vackert par 
      F        G          Am     G 
Bara synd att den som får gå är jag 
       F                              G      Am    Gsus4   G 
Du är stum men jag vet, rätt längesen du var min 
        F                                G   Am       G 
Jag kan låtsas ett tag till, kvällen är alldeles för fin 

    F       G      Am        G 
Åh Cecilia, hon är allt för dig 
    F               G  
Åh Cecilia min vän, baby 
Am                  G 
Sättet hon rör sig, och hon förför dig 
 F                     G 
Igen, igen, igen igen igen 
Am        G 
...Igen, igen igen igen 
F                   G      
...Igen, igen igen igen 
  Am    G 
..........  

Natten andas stilla, stjärnor glittrar över stan 
Inget prat, där vi sakta går hand i hand 
Hör vår tystnad tala, jag hör den viska hennes namn 
Är det hon jag är när du tar mig i din famn? 

Refräng 

F 
...Igen, igen igen igen 
F  
...Igen, igen igen igen 
F         G           
...Igen, igen igen igen 
Em        F 
...Igen, igen igen igen 
F         G 
...Igen, igen igen igen 
Em        F 
...Igen, igen igen igen 
F         G 
...Igen, igen igen igen 
Em        F 
...Igen, igen igen igen 

Refräng 

Tabulatur: 

Minns du 94...          Hon tittar      upp och fnissar 
|--------------------------|--------------------------| 
|--------------------------|--------------------------| 
|--------------------------|--------------------------| 
|-----2-----2-----2-----2--|-----2-----2-----0-----0--| 
|--0-----0-----0-----0-----|--0-----0-----2-----2-----| 
|--------------------------|--------------------------| 

  till...                             Hon   svarar 
|--------------------------|--------------------------| 
|--------------------------|--------------------0--1--| 
|--------------------------|--------------0--2--------| 
|-----2-----2-----2-----2--|-----0--2--3--------------| 
|--3-----3-----3-----3-----|--3-----------------------| 
|--------------------------|--------------------------| 

   ja...                         Fast hon inte var 
|--------------------------|--------------------------| 
|--------------------------|--------------------------| 
|-----2-----2-----2-----2--|-----2-----2-----4-----4--| 
|--3-----3-----3-----3-----|--3-----3-----5-----5-----| 
|--------------------------|--------------------------| 
|--------------------------|--------------------------| 

   född...                    än...            Flickan 
|--------------------------|--------------------------| 
|--------------------------|--------------------------| 
|-----5-----5-----5-----5--|-----4-----4-----4-----4--| 
|--7-----7-----7-----7-----|--5-----5-----5-----5-----| 
|--------------------------|--------------------------| 
|--------------------------|--------------------------| 

  äger         världen            och ni blir ett vackert 
|--------------------------|--------------------------| 
|--------------------------|--------------------------| 
|-----2-----2-----2-----2--|-----2-----2-----0-----0--| 
|-----2-----2-----2-----2--|-----2-----2-----0-----0--| 
|--0-----0-----0-----0-----|--0-----0-----2-----2-----| 
|--------------------------|--------------------------| 

  par                                     bara 
|--------------------------|--------------------------| 
|--------------------------|--------------------0--1--| 
|-----0-----0-----0-----0--|--------------0--2--------| 
|-----2-----2-----2-----2--|-----0--2--3--------------| 
|--3-----3-----3-----3-----|--3-----------------------| 
|--------------------------|--------------------------| 

   synd                              att den som får 
|--------------------------|--------------------------| 
|-----1-----1-----1-----1--|-----1-----1-----3-----3--| 
|-----2-----2-----2-----2--|-----2-----2-----4-----4--| 
|--3-----3-----3-----3-----|--3-----3-----5-----5-----| 
|--------------------------|--------------------------| 
|--------------------------|--------------------------| 

   gå...               är    jag                Du är 
|--------------------------|--------------------------| 
|-----5-----5-----5-----5--|-----3-----3-----3-----3--| 
|-----5-----5-----5-----5--|-----4-----4-----4-----4--| 
|--7-----7-----7-----7-----|--5-----5-----5-----5-----| 
|--------------------------|--------------------------| 
|--------------------------|--------------------------| 

  stum     men jag vet         rätt    längesen      du      var 
|----------------------------------|----------------------------------| 
|--10------10------10------10------|--10------10------12------12------| 
|------10------10------10------10--|------10------10------12------12--| 
|----------------------------------|----------------------------------| 
|---8-------8-------8-------8------|---8-------8------10------10------| 
|----------------------------------|----------------------------------| 

  min                                                         jag kan 
|----------------------------------|----------------------------------| 
|--13------13------13------13------|--13------13------12------12------| 
|------14------14------14------14--|------12------12------12------12--| 
|----------------------------------|----------------------------------| 
|--12------12------12------12------|--10------10------10------10------| 
|----------------------------------|----------------------------------| 

   låtsas     ett  tag    till        kvällen    är   alldeles    
|----------------------------------|----------------------------------| 
|--10------10------10------10------|--10------10------12------12------| 
|------10------10------10------10--|------10------10------12------12--| 
|----------------------------------|----------------------------------| 
|---8-------8-------8-------8------|---8-------8------10------10------| 
|----------------------------------|----------------------------------| 

                               för    fin             (Åh     Cec-) 
|----------------------------------|----------------------------------| 
|--13------13------13------13------|--12------12------12------12------| 
|------14------14------14------14--|------12------12------12------12--| 
|----------------------------------|----------------------------------| 
|--12------12------12------12------|--10------10------10------10------| 
|----------------------------------|----------------------------------| 
share this page

See Also: