E-Chords
Lina Larissa Strahl

Kein Bock(Chords)

Lina Larissa Strahl

Key: Bm
Intro 
Bm                D                G                A 
|----------------|--------------0-|----------------|--------2-0-----| 
|------------3---|------------3---|------------3---|------------3-0-| 
|2---4-2-4-2-----|2---4-2-4-2-----|2---4-2-4-2-----|2---4-2---------| 
|----------------|----------------|----------------|----------------| 
|----------------|----------------|----------------|----------------| 
|----------------|----------------|----------------|----------------| 

Bm                D                G                A 
|----------------|--------------0-|----------------|2-0-------------| 
|------------3---|------------3---|------------3---|----3-0---------| 
|2---4-2-4-2-----|2---4-2-4-2-----|2---4-2-4-2-----|--------2-------| 2x 
|----------------|----------------|----------------|----------4-2-0-| 
|----------------|----------------|----------------|----------------| 
|----------------|----------------|----------------|----------------|
verse 1 N.C. Du sagst mir das Bm Bm A und O im Leben ist 'n richtig guter Plan und dass ich Bm Bm langsam alt genug wär um den auch mal zu haben alle Bm Bm andern machen's auch und wie sieht das sonst aus du willst doch Bm Bm irgendwann mal Kinder und n eigenes Haus ich soll Bm D dies,ich soll das,sei mal so,mach mal was, lass das G A sein,komm mal klar, hör jetzt zu,sag mal ja glaub mir ich Bm D geb mir alle Mühe um das auch zu schaffen G A doch im Moment muss ich leider passen. Ich kann grad nicht ich hab kein Bm D G A Bock Ich würd ja wirklich gerne Doch ich hab leider grad kein Bm D G A Bock es tut mmir leid von Herzen Doch ich hab Ter- Bm D G A mine,Termine.Bin busy,busy du weißt dir jetzt abzusagen Fällt mir wirklich nicht leicht Ich hab kein Bm D G A Bock Ich meld' mich,hab ich wieder Zeit verse 2. Bm Bm Du hast da was geplant Und das find ich wirklich schön Doch da muss Bm Bm ich dich jetzt enttäuschen Hoff du kannst das verstehen, denn ich Bm Bm hab da noch'n Meeting Mit mir und meiner Couch Bm Bm Ständig so viel Arbeit, ey wer hält das noch aus ich soll Bm D dies, ich soll das, sei mal so, mach mal was, lass das G A sein, komm mal klar sag mal ja, Bla-Bla-Bla glaub mir ich Bm D geb mir alle Mühe um das auch zu schaffen doch im G A Moment muss ich leider passen. Ich kann grad nicht ich hab kein Bm D G A Bock Ich würd ja wirklich gerne Doch ich hab leider grad kein Bm D G A Bock es tut mmir leid von Herzen Doch ich hab Ter- Bm D G A mine,Termine.Bin busy,busy du weißt dir jetzt abzusagen Fällt mir wirklich nicht leicht Ich hab kein Bm D G A Bock Ich meld' mich,hab ich wieder Zeit Ich mein ich muss um Bm D G A 1 Uhr chilln und um 2 kurz schlafen Und zwischendrin die ganze Zeit atmen Bm D G A Dann muss ich doch auch irgendwie mal klarkommen Um Bm D G A 3 leg ich mich hin und um 4 dann endlich Pause Um 5 geht's ab nach Hause Bm D G A Warum machst du das nicht genauso Wirklich denn: Ich kann grad nicht ich hab kein Bm D G A Bock Ich würd ja wirklich gerne Doch ich hab leider grad kein Bm D G A Bock es tut mmir leid von Herzen Doch ich hab Ter- Bm D G A mine,Termine.Bin busy,busy du weißt dir jetzt abzusagen Fällt mir wirklich nicht leicht Ich hab kein Bm D G A Bock Ich meld' mich,hab ich wieder Zeit Versprochen Bm D G A Ich hab heute überhaupt gar kein Bock N.C. Kein Bock

roll up this ad to continue

share this page

See Also: