E-Chords
LiL PEEP

U Said(Chords)

LiL PEEP

roll up this ad to continue

Key: D
Intro 
E|-------------------------------------------------------------------------------| 
B|-------------------------------------------------------------------------------| 
G|-------------------------------------------------------------------------------| 
D|-------------------------------------------------------------------------------| 
A|-----------------------2-2-2-2-2-2-2-2-------------------------0-0-0-0-0-0-0-0-| 
E|--0-0-0-0-0-0-0-0-----------------------3-3-3-3-3-3-3-3------------------------| 

E|------------------------------------------------------------------------| 
B|------------------------------------------------------------------------| 
G|------------------------------------------------------------------------| 
D|------------------------------------------------------------------------| 
A|-----------------------2-2-2-2-2-2-2-2----------------------------------| 
E|--0-0-0-0-0-0-0-0-----------------------3-3-3-3-3-3-3-3-3-3-3-3-3-3-3-3-| 
( Em Bm G A ) Em Bm G Runnin' away from you takes time and pain A And I don't even want to Em Bm G So I'm gettin' high all week without you A Popping pills, thinking about you Em Bm G Runnin' away from you takes time and pain A And I don't even want to Em Bm G So I'm gettin' high all week without you A Popping pills, thinking about you D Bm I wish I didn't have a heart to love you (I wish I didn't have a heart to love you) G A I wish I didn't play a part to break you (I wish I didn't play a part to break you) D Bm I wish I didn't do a lot of the shit I do (The shit I do) G A And I wish you didn't too Em Bm G Runnin' away from you takes time and pain A And I don't even want to Em Bm G So I'm gettin' high all week without you A Popping pills, thinking about you D Bm I wish I didn't have a heart to love you (I wish I didn't have a heart to love you) G A I wish I didn't play a part to break you (I wish I didn't play a part to break you) D Bm I wish I didn't do a lot of the shit I do G A And I wish you didn't too D Sometimes life gets fucked up Bm That's why we get fucked up G I can still feel your touch A I still do those same drugs D Sometimes life gets fucked up Bm That's why we get fucked up G I can still feel your touch A I still do those same drugs
share this page

See Also: