E-Chords
Leon Thomas III

Palm Trees Or Mistletoe(Chords)

Leon Thomas III

roll up this ad to continue

Key: Am
Hey everyone, 

This is a great Christmas song by Leon Thomas III and Vali. The song has three  
main parts: Intro/Verse Chorus and Bridge Section and is in the key of A minor. In  
the video I saw, Leon plays the intro/verse section with fingerpicking and the  
rest is regular strumming. 

Intro/Verse Section (Remember this section is picked with you fingers. It may be  
difficult at first but you will get it with practice.) 

   Am7    D7     Gm7    C7 
e|-x------x------x------x--| 
B|-8------7------6------5--| 
G|-5------5------3------3--| 
D|-x------x------x------x--| 
A|-x------5------x------3--| 
E|-5------x------3------x--| 
Intro Am7-D7-Gm7-C7 Verse (Leon) Am7 No matter the weather, Long as your here girl D7 Down for whatever, when we're together Gm7 Im good girl, C7 Oooooohhhhh, I'm good girl (Vali) Am7 No matter the weather, Bikini or sweater D7 Boy it dont matter, as long as I have ya Gm7 Im good baby C7 Oooooohhhhh, I'm good baby, yeah (Chorus Section) Strum. The E at the end could also be played as an E7.
    F      Em     Am     C      Dm     E      E7 
e|-1------0------0------x------5------x------7--| 
B|-1------0------1------5------6------9------9--| 
G|-2------0------2------5------7------9------7--| 
D|-3------2------2------5------7------9------9--| 
A|-3------2------0------3------5------7------7--| 
E|-1------0------x------x------x------x------x--| 
(Leon) F Em We dont need coats or snow Am We can hit the beach, I'll still hold you close (Vali) F Em We still got Christmas lights Am C Dm When it's warm outside, I'll still hold you tight and you know E or E7 I'll never let you go Whether it's palm trees or mistletoe
Bridge Section (strum) 
   Am7    D7     Gm7    C7     F      E 
e|-5------5------3------3------1------0--| 
B|-5------7------3------5------1------0--| 
G|-5------5------3------3------2------1--| 
D|-5------7------3------5------3------2--| 
A|-7------5------5------3------3------2--| 
E|-5------x------3------x------1------0--| 
Am7 Fa la la la la la la la la D7 Fa la la la la la la Gm7 Fa la la la la la la C7 Fa la la la la la la F E Under palm tress or mistletoe, I'll never let you go (verse 2) (Leon) Am7 No matter the weather, Your presence a present D7 I feel like a kid cause it's Chrismas forever Gm7 With you baby C7 ooooooohhhhh with you baby (Vali) Am7 Did I ever tell ya, wrote Santa a letter, D7 Asking for treasure, under the tree Gm7 I got you baby C7 ooooooooohhhhh I got you baby, (Leon) You got me baby (Chorus) (Vali) F Em We dont need coats or snow Am We can Hit the beach, I'll still hold you close (Leon) F Em We still got Christmas lights Am C Dm When it's warm outside, I'll still hold you tight but you know E or E7 I'll never let you go Whether it's palm trees or mistletoe (bridge) Am7 Fa la la la la la la la la D7 Fa la la la la la la Gm7 Fa la la la la la la C7 Fa la la la la la la F E Under palm tress or mistletoe, I'll never let you go (This isnt in the song but you can end the song with an Am7 strum) Hope you enjoy and please rate! Thanks, Mante'301
share this page

See Also: