E-Chords
Leila Francieli

Poderoso (infinitamente Mais)(Chords)

Leila Francieli

roll up this ad to continue

Key: F
Intro: F C9 Gm F/A Bb) Base - Telado 

Solo Sax, pode ser feito na guitarra: 

E|-----------------------| 
B|---------6-5-6---------| 
G|--5-5-5----------------| 
D|-----------------------| 
A|-----------------------| 
E|-----------------------| 

E|-----------------------| 
B|---------8-6-5---------| 
G|--5-5-5--------5-------| 
D|-----------------------| 
A|-----------------------| 
E|-----------------------| 

E|----5-6-5--------------| 
B|--8-------8-6----------| 
G|-----------------------| 
D|-----------------------| 
A|-----------------------| 
E|-----------------------| 

E|-----------------------| 
B|--------6--------------| 
G|--5-5/7---7------------| 
D|-----------------------| 
A|-----------------------| 
E|-----------------------| 
F Bb/F Pra meu Deus não existe impossível C/E F7M Para tudo Ele tem solução F Bb/F A tristeza converte em alegria C/E F7M Am7 Pois Ele muda qualquer situação Dm Bb F C Ele é santo e capaz, Ele é justo e fiel Gm C Sua Palavra não volta atrás Dm Bb O mal não pode vencê-lo F C Em suas mãos há poder Gm C A Seus filhos dá sempre o melhor Bb/D C/E F C Poderoso Ele é, Poderoso Ele é Gm F/A Bb C Pra fazer muito mais, Infinitamente mais F C Poderoso Ele é Gm F/A Bb C Pra fazer muito mais, Infinitamente mais Dm Bb F C Dm Bb F C Ele grande! F Bb/F Pra meu Deus não existe impossível C/E F7M Para tudo Ele tem solução F Bb/F A tristeza converte em alegria C/E F7M Am7 Pois Ele muda qualquer situação Dm Bb F C Ele é santo e capaz, Ele é justo e fiel Gm C Sua Palavra não volta atrás Dm Bb O mal não pode vencê-lo F C Em suas mãos há poder Gm C A Seus filhos dá sempre o melhor Bb/D C/E F C Poderoso Ele é, Poderoso Ele é Gm F/A Bb C Pra fazer muito mais, Infinitamente mais F C Poderoso Ele é Gm F/A Bb C Pra fazer muito mais, Infinitamente mais Dm C Ele grande! (Sobe 1 tom) C/E D/F# G D Poderoso Ele é, Poderoso Ele é Am G/B C D Pra fazer muito mais, Infinitamente mais G D Poderoso Ele é Am G/B C D Pra fazer muito mais, Infinitamente mais G Ele é grande
share this page

See Also: