E-Chords
Leandro Lo

Joo De Barro(Chords)

Leandro Lo

roll up this ad to continue

Key: E
Intro C#m  B  A  B 
        C#m  B  A9 

   C#m              B 
E|--9-----11---12---7-------7h9p7-----------| 
B|--9---9-----------7-7-----7-----7---------| 
G|--9-9------9------8---8-----------8-------| 
D|-11---------------9-----9-----------------| 
A|------------------------------------------| 
E|------------------------------------------| 

   A                           B 
E|-5--------5------5-------5---7-------7----| 
B|-5----5-----5------5---5---5---7---7---7--| 
G|-6--6---6-----6------6-----------8--------| 
D|-----------------------------9------------| 
A|-0----------------------------------------| 
E|------------------------------------------| 
 
   C#m              B                  A9 Harm 
E|--9-----11---12---7-------7h9p7------0-12-| 
B|--9---9-----------7-7-----7-----7----0--12| 
G|--9-9------9------8---8-----------8--6----| 
D|-11---------------9-----9------------7----| 
A|-------------------------------------0----| 
E|------------------------------------------|
Estrofes
   C#m7             B4 
E|----------0----------------0-------------| 
B|--------0---0------------0---0-----------| 
G|------6-------6--------4-------4---------| 
D|----6-----------6----4-----------4-------| 
A|-/4---------------\2---------------------| 
E|-----------------------------------------| 

   A5(9) 
E|---------0---------------0---------------| 
B|-------0---0-----------0---0-------------| 
G|-----2-------2-------2-------2-----------| 
D|---2-----------2---2-----------2---------| 
A|-0---------------0-----------------------| 
E|-----------------------------------------| 
 
   C#m7             B4                A5(9) 
E|----------0----------------0---------0---| 
B|--------0---0------------0---0-------0---| 
G|------6-------6--------4-------4-----2---| 
D|----6-----------6----4-----------4---2---| 
A|-/4---------------\2-----------------0---| 
E|-----------------------------------------| 

    A5(9) 
E|--------------0--------------------------| 
B|----------0-----------0------------------| 
G|------6-----------6-------6--------------| 
D|----7---7---7---7---7---7---7------------| 
A|--0--------------------------------------| 
E|-----------------------------------------| 
C#m7 B4 A5(9) O meu desafio andar sozinho Esperar no tempo os nossos destinos C#m7 B4 A5(9) No olhar pra trs, esperar a paz O que me traz C#m7 B4 A9 A ausncia do seu olhar C#m7 B4 Traz nas asas um novo dia A5(9) Me ensina a caminhar C#m7 B4 A9 Mesmo eu sendo menino aprendi C#m7 B4 Oh meu Deus me traz de volta essa menina A5(9) Porque tudo que eu tenho o seu amor C#m7 B4 Joo de Barro eu te entendo agora A9 C#m7 B4 A5(9) Por favor me ensine como guardar meu amor C#m7 B4 A5(9) O meu amor C#m7 B4 A5(9) O meu desafio andar sozinho Esperar no tempo os nossos destinos C#m7 B4 A5(9) No olhar pra trs, esperar a paz O que me traz C#m7 B4 A9 A ausncia do seu olhar C#m7 B4 Traz nas asas um novo dia A5(9) Me ensina a caminhar C#m7 B4 A9 Mesmo eu sendo menino aprendi C#m7 B4 Oh meu Deus me traz de volta essa menina A5(9) Porque tudo que eu tenho o seu amor C#m7 B4 Joo de Barro eu te entendo agora A9 C#m7 B4 A5(9) Por favor me ensine como guardar meu amor C#m7 B4 A5(9) O meu amor Final C#m B A B C#m B A9
   C#m              B 
E|--9-----11---12---7-------7h9p7-----------| 
B|--9---9-----------7-7-----7-----7---------| 
G|--9-9------9------8---8-----------8-------| 
D|-11---------------9-----9-----------------| 
A|------------------------------------------| 
E|------------------------------------------| 

   A                           B 
E|-5--------5------5-------5---7-------7----| 
B|-5----5-----5------5---5---5---7---7---7--| 
G|-6--6---6-----6------6-----------8--------| 
D|-----------------------------9------------| 
A|-0----------------------------------------| 
E|------------------------------------------| 

   C#m              B                  A9 Harm 
E|--9-----11---12---7-------7h9p7------0-12-| 
B|--9---9-----------7-7-----7-----7----0--12| 
G|--9-9------9------8---8-----------8--6----| 
D|-11---------------9-----9------------7----| 
A|-------------------------------------0----| 
E|------------------------------------------|
share this page

See Also: