E-Chords
Le Vibrazioni

Ogni Giorno Ad Ogni Ora(Chords)

Le Vibrazioni

Key: F#m
Capo on 4th fret
 

Intro:
F#m   A   C#m  G#m 
Intro: 
  F#m           A          C#m           G#m 
E|-5-5-5-5-5-7--9-9-9-9-7--4-4-4-4-4-5--4-4-4-4-4-7-| 
A|--------------------------------------------------| 
G|-6-6-6-6-6-6--6-6-6-6-6--6-6-6-6-6-6--6-6-6-6-6-6-| 
D|--------------------------------------------------| 
A|--------------------------------------------------| 
E|--------------------------------------------------| 

Riff: 
Part 1 
  F#m           A          C#m           G#m 
E|-5-5-5-5-5-7--9-9-9-9-7--4-4-4-4-4-5--4-4-4-4-4-7-| 
A|--------------------------------------------------| 
G|-6-6-6-6-6-6--6-6-6-6-6--6-6-6-6-6-6--6-6-6-6-6-6-| 
D|--------------------------------------------------| 
A|--------------------------------------------------| 
E|--------------------------------------------------| 

Part 2 
  D                             E      
E-5--5-5-5-5-5---5--5-5-5-5-5---7--7-7-7-7-7----7--7-7-7-7-7-| 
B-7--7-7-7-7-7---7--7-7-7-7-7---9--9-9-9-9-9----9--9-9-9-9-9-| 
G------------------------------------------------------------| 
D------------------------------------------------------------| 
A-5--5-5-5-5-5---5--5-5-5-5-5---7--7-7-7-7-7----7--7-7-7-7-7-| 
E------------------------------------------------------------| 
verse 1 F#m A C#m G#m Le foglie per terra e le nuvole nel cielo F#m A C#m G#m mi parlano di amori perduti in un sentiero D E dove filtra a mala pena una luce fresca e pura. F#m A C#m G#m La nebbia dei passi poi, l'immaggine confusa F#m A C#m G#m cammina avvolta in un mantello e si gira. F#m A C#m G#m Gli uccelli sui rami in un mattino addormentato F#m A C#m G#m si svegliano d'incanto con poetiche armonie, D E ricordandomi le notti insonne spese in nuove danze oscure.
A C#m F#m Ogni giorno ad ogni ora c'Ŕ una nuova realtÓ A C#m F#m che vive in funzione delle tue emozioni D E e questa carne che hai prima o poi svanirÓ! A C#m F#m Ogni giorno ad ogni ora dimmi di si, A C#m perchŔ vivo in funzione delle mie emozioni F#m D E e questa carne che ho prima o poi svanirÓ.... F#m A C#m G#m F#m prima o poi svanirÓ!!
A C#m Em verse 2 F#m A C#m G#m Le rime in un poema ci incantano e ci spogliano F#m A C#m G#m su un letto di spine dove passano fugaci ardori. D E E un incontenibile piacere cerca il tuo respiro.
A C#m F#m Ogni giorno ad ogni ora c'Ŕ una nuova realtÓ A C#m F#m che vive in funzione delle tue emozioni D E e questa carne che hai prima o poi svanirÓ! A C#m F#m Ogni giorno ad ogni ora dimmi di si, A C#m perchŔ vivo in funzione delle mie emozioni F#m D E e questa carne che ho prima o poi svanirÓ....
Outro (X4) F#m prima o poi svanirÓ!!

roll up this ad to continue

share this page

See Also: