Lázaro

O Caminho(Chords)

Lázaro

Key: G

roll up this ad to continue

	        Intro: G D Em C 

E----------------------------------------------------------------------------------------------------------- 
B|--------------------------------------------5-7-8--88888/------------------------------------------------- 
G|7-7-7-7h9-7----7-7-7-7h9-7----7/9-9-9-9p7-9--------------------------------------------------------------- 
D|----------------------------------------------------------------------------------------------------------- 
A|---------------------------------------------------------------------------------------------------------- 
E|----------------------------------------------------------------------------------------------------------
G Em Tanto tempo procurando o caminho e não encontrou D C Apesar de ter uma religião onde você chora onde você ora G Em A sensação é de que o tempo foi e você ficou D C Querendo tudo e ficou sem nada correu na direção errada G Não dá para abraçar o Deus de amor com ódio Em (não, não, não, não, não, não dá) D Não dá para abraçar o príncipe da paz com guerra C (não, não, não, não, não, não dá) G Não dá para abraçar o Deus que é pai com inveja Em (não, não, não, não, não, não dá) D Não dá para conquistar o coração de Deus com grana C (não, não, não, não, não, não dá) G D Em C
E|---------------------------------------------------------------------------------------------------------- 
B|--------------------------------------------5-7-8-7-5-5--------------------------------------------------- 
G|7-7-7-7h9-7----7-7-7-7h9-7----7/9-9-9-9p7-9-------------7-5-7--------------------------------------------- 
D|----------------------------------------------------------------------------------------------------------- 
A|----------------------------------------------------------------------------------------------------------- 
E|----------------------------------------------------------------------------------------------------------- 

E|---------------------------------------------------------------------------------------------------------- 
B|--------------------------------------------5-7-8--88888/------------------------------------------------- 
G|7-7-7-7h9-7----7-7-7-7h9-7----7/9-9-9-9p7-9--------------------------------------------------------------- 
D|----------------------------------------------------------------------------------------------------------- 
A|---------------------------------------------------------------------------------------------------------- 
E|---------------------------------------------------------------------------------------------------------- 
G Em Tanta pedra de tropeço no caminho do homem de Deus D C Apesar do frio da perseguição traz no peito o calor da compaixão G Em Tudo sofre (tudo sofre), Tudo espera (tudo espera), Tudo crê (tudo crê) D C Tendo tudo mas não se apega a nada não dá ouvidos a conversa errada G Não dá para abraçar o Deus de amor com ódio Em (não, não, não, não, não, não dá) D Não dá para abraçar o príncipe da paz com guerra C (não, não, não, não, não, não dá) G Não dá para abraçar o Deus que é pai com inveja Em (não, não, não, não, não, não dá) D Não dá para conquistar o coração de Deus com grana C (não, não, não, não, não, não dá) (2x) G D Em C
E|---------------------------------------------------------------------------------------------------------- 
B|--------------------------------------------5-7-8-7-5-5--------------------------------------------------- 
G|7-7-7-7h9-7----7-7-7-7h9-7----7/9-9-9-9p7-9-------------7-5-7--------------------------------------------- 
D|----------------------------------------------------------------------------------------------------------- 
A|----------------------------------------------------------------------------------------------------------- 
E|----------------------------------------------------------------------------------------------------------- 
 
E|---------------------------------------------------------------------------------------------------------- 
B|--------------------------------------------5-7-8-7-5-5--------------------------------------------------- 
G|7-7-7-7h9-7----7-7-7-7h9-7----7/9-9-9-9p7-9-------------7-5-7--------------------------------------------- 
D|----------------------------------------------------------------------------------------------------------- 
A|----------------------------------------------------------------------------------------------------------- 
E|----------------------------------------------------------------------------------------------------------- 

Written by Antonio Lazaro Silva

share this page

See Also: