E-Chords
La Roque

No Puedo Ocultarlo(Chords)

La Roque

roll up this ad to continue

Key: Am
              Am               E                    Am        F 
E|---------------|---------------|---------------------|-----1--------| 
B|-3-1-0-----1---|-3-1-0---------|-0-1-3-3-1-0------1--|-----1--------| 
G|-------2-0-2---|--------2-0-1--|-------------2-0--2--|-----2--------| 
D|-----------2---|------------2--|------------------2--|-----3--------| 
A|---------------|------------2--|---------------------|-----3--------| 
E|---------------|---------------|---------------------|-----1--------| 

         Am               F                E                      Am 
E|---------------|-------1--------|-----------------|-----------------| 
B|-------1-------|-------1--------|-----------------|--3-1-0------1---| 
G|-------2-------|-------2--------|-------1---------|--------2-0--2---| 
D|-------2-------|-------3--------|-------2---------|-------------2---| 
A|---------------|-------3--------|-------2---------|-----------------| 
E|---------------|-------1--------|-----------------|-----------------| 
Am Te amo y no puedo ocultarlo... F Te amo y mi vida sin vos Dm7 E Es imposible imaginar E7 E Que no estés a mi lado Am F Cambiaste mi vida Y mis cinco sentidos Dm7 E Se abrieron al abrazo de tu pieL Estribilho: Am Am F Te amo amor ... F Y el mundo ya no importa Dm7 E Habitando en el calor de mi corazón... Am Am F Solo importas tu, coro: solo importas tu ahora que está amaneciendo Dm7 E Y se que ya no te irás ... ahora que alumbra el sol
share this page

See Also: