E-Chords
Kristin Hersh

Glass(Chords)

Kristin Hersh

Key: D
GLASS 

album version - CROOKED 
____________________________________ 
____________________________________ 
Tuned down a whole step to D-G-C-F-A-D. 
____________________________________ 
____________________________________ 
fig.1a:   
  B5      E5      G 
d--------------------------------------- 
a--------------------------------------- 
f-------------------------4------------- 
c-----9-------2-------5-------5--------- 
g---9---9---2---2---5---5---5---5------- 
d-7-------0-------3--------------------- 

fig.1b:   
  B5      E5      G               B5 
d--------------------------------------- 
a--------------------------------------- 
f-------------------------4------------- 
c-----9-------2-------5-------5--------- 
g---9---9---2---2---5---5---5---5-9----- 
d-7-------0-------3---------------7----- 

fig.2a:                                    
d------------------------------- 
a---6---6---6---6---6---6------- 
f-7---7---7---7---7---7---7----- 
c------------------------------- 
g------------------------------- 
d------------------------------- 

fig.2b:                                    
d------------------------------- 
a---6---6---6---6---6---6---6--- 
f-7---7---7---7---7---7---7---7- 
c------------------------------- 
g------------------------------- 
d------------------------------- 

fig.3:                                    
d-----------------------3------- 
a-----6--5----------3-6---3----- 
f---7------5------3------------- 
c-7----------5--3-----------5--- 
g------------------------------- 
d------------------------------- 

chords: 
   D5       C5       A#5     G5                   
d------- -------- ------- ------- 
a------- -------- ------- ------- 
f------- -------- ------- ------- 
c--12--- ---10--- ---8--- ---5---  
g--12--- ---10--- ---8--- ---5---   
d--10--- ---8---- ---6--- ---3---  
_______________________________________________ fig.1a (x2) fig.1b D5 C5 A#5 G5 D5 C5 A#5 G5 D5 C5 Is this witchy? A#5 G5 My thoughts are cloudy D5 C5 A#5 G5 This is weird: my mind is clear fig.2a D5 C5 A#5 G5 D5 C5 In this hyper-chlorinated pool of humanity A#5 G5 D5 You're very clean C5 A#5 G5 You're very clean D5 C5 A#5 G5 I give up D5 C5 A#5 G5 I give up D5 C5 Is this hunger? A#5 G5 I can't remember D5 C5 A#5 G5 This is strange: we're just the same fig.2a D5 C5 A#5 G5 D5 C5 In this insatiable, unstable subspecies A#5 G5 D5 You're very sweet C5 A#5 G5 You're very sweet D5 C5 A#5 G5 I give up D5 C5 A#5 G5 I give up fig.3 (x5) D5 C5 A#5 G5 Flies woke up, confused, sprung to life D5 C5 A#5 G5 And spring all here and everything fig.2b D5 C5 A#5 G5 D5 C5 Sleeping on the kitchen couch, sun everywhere A#5 G5 D5 You're very clear C5 A#5 G5 You're very clear D5 C5 A#5 G5 I give up D5 C5 A#5 G5 I give up D5 C5 A#5 G5 I give up D5 C5 A#5 G5 I give up __________________________________________________________ fig.1a (x3) fig.1a fig.1a Why put the light on? fig.1a fig.1a Why put the light on at all? fig.1a fig.1a Why put the light on? fig.1b Why put the light on at all?

roll up this ad to continue

share this page

See Also: