E-Chords
Kristin Hersh

Amazing Grace(Chords)

Kristin Hersh

Key: C
chords: 
  C    F   Am  A# 
e-8----1---5---6----- 
b-8----1---5---6----- 
g-9----2---5---7----- 
d-10---3---7---8----- 
a-10---3---7---8----- 
e-8----1---5---6----- 
_______________________________________ 

Intro: 
 C           F       Am   A#   C 
e------------------------------------- 
b------------------------------------- 
g--------------------2--2-3--3-5------ 
d---5-10--10-3--2-3--------------5-10- 
a------------------------------------- 
e------------------------------------- 
_______________________________________ Amazing grace F How sweet the sound Am A# C That saved a wretch like me I was once lost F But now am found Am A# C Was blind but now I see 'Tis grace that taught F My heart to fear Am A# C And grace my fears relieved F How precious did that grace appear Am A# C The hour I first believed F Through many dangers, toils and snares Am A# C I have already gone F 'Tis grace that brought me safe this far Am A# C And grace will lead me home When we've been there F Ten thousand years Am A# C Bright shining as the sun F We've no less days to sing god's praise Am A# C Than when we'd first begun Amazing grace F How sweet the sound Am A# C That saved a wretch like me F I was once lost but now am found Am A# C Was blind but now I see _______________________________________
                     F       Am   A#   C 
e-------------------------------------------------- 
b-------------------------------------------------- 
g----------------------------2--2-3--3-5--5-9--9--- 
d-10-14--5--5-10--10-3--2-3----------------------5- 
a-------------------------------------------------- 
e-------------------------------------------------- 

           F       Am   A# C                       F 
e---------------------------------------------------- 
b---------------------------------------------------- 
g------------------2--2-3--3-5--5-9--9--------------- 
d-5-10--10-3--2-3----------------------5--5-10--10-3- 
a---------------------------------------------------- 
e----------------------------------------------------

roll up this ad to continue

share this page

See Also: