E-Chords
Kiss

Forever(Chords)

Kiss

Watch the video lesson
Key: D9
Afinação (D# G# C# F# A# d#) 
   
(dedilhado)  

Intro e Parte A 
D9        C9       G    D9                       C9 
d#|-------------------------------0---3-2-3-2---0---------| 
A#|-----3--------3--------3-----3---3-------------3-------| 
F#|---2---2--------0----------2---------------2-----------| 
C#|-0----------0--------0---0-----------------------------| 
G#|----------3--------------------------------------------| 
D#|--------------------3----------------------------------| 
D9 C9 G D9 I got to tell you what I'm feeling inside. C9 I could lie to myself, but its true. D9 C9 G D9 There's no denyin' when I look in your eyes C9 Girl, I'm out of my head over you.
  
Parte B 
Am7      G/B    C9    D9 
d#|----------------------------0----------------------------| 
A#|----1-------3-------3-----3---3--------------------------| 
F#|--0---0---0---0---0-----2--------------------------------| 
C#|----------------------0----------------------------------| 
G#|0--------2------3----------------------------------------| 
D#|---------------------------------------------------------| 

Am7     G/B       C9     D9 
d#|-------------0-----------------0-------------------------| 
A#|----1------3---3-----3-------3---3-----------------------| 
F#|--0------0---------0-------2-----------------------------| 
C#|-------------------------0-------------------------------| 
G#|0------2----------3--------------------------------------| 
D#|---------------------------------------------------------|  
Am7 G/B C9 D9 And I lived so long be lieving all love is blind Am7 G/B C D But everything about you is telling me this time Its
G D Em C Am D Forever This time I know and there's no doubt in my mind. G D Forever. G Am Until my life is through, G/B C9 D C9 Girl I'll be loving you forever
 
d#|3-----2-----0--------------| 
A#|----3-----3---3------------| 
F#|--0-----0------------------| 
C#|---------------------------| 
G#|---------------------------|  
D#|---------------------------| 
D C9 G D9 I hear the echo of a promise I made D9 C9 When you're strong you can stand on your own. D C9 G D9 But those words grow distant as I look at your face C9 No, I don't wanna go it alone Am7 G/B C D9 I never thought I'd lay my heart on the line. Am7 G/B C D But everything about you is telling me this time Its
G D Em C Am D Forever, this time I know and there's no doubt in my mind. G D Forever. G Am7 Until my life is through, G/B C D C Girl I'll be loving you forever
Base do Solo: D9 C9 G D Em D C9
Solo:    

d#|----10-10---10-10-10-8-7h8p7----------------------------------------| 
A#|-----------------------------10-8-7--------7-7h8p7---7-8------------| 
F#|--7-------7-------------------------9-7--9---------9-----9----------| 
C#|0-------------------------------------------------------------------| 
G#|-----------------------------------------------------------10-------| 
D#|--------------------------------------------------------------------| 

d#|--------------------------------------------------------------------| 
A#|----------------------hn5-------------------------------------------| 
F#|----------------------hn5-------------------------------------------| 
C#|----------------------hn5-------------------------------------------| 
G#|9h10p9-7h9p7/5/7/5/3------------------------------------------------| 
D#|--------------------------------------------------------------------| 

d#|-------------------------------7------------------------------------| 
A#|7-8-10~-8--7-7h8p7----7-8-10~----10-8-7~---7------------------------| 
F#|--------------------9--------------------9---7-7/9/7~---------------| 
C#|--------------------------------------------------------------------| 
G#|--------------------------------------------------------------------| 
D#|--------------------------------------------------------------------| 

d#|--------------------------12-14-15~--14-12-14~-15-14-12~------------| 
A#|-----------------------12-------------------------------------------| 
F#|------------------PM12----------------------------------------------| 
C#|9p7----------PM14---------------------------------------------------| 
G#|----9p7/5/7~--------------------------------------------------------| 
D#|--------------------------------------------------------------------| 

d#|--15--------14~-----12~-----10~-------------------------------------| 
A#|--------------------------------------------------------------------| 
F#|12~---12/11~---11/9~----9/7~----7/5~--------------------------------| 
C#|--------------------------------------------------------------------| 
G#|--------------------------------------------------------------------| 
D#|--------------------------------------------------------------------| 
Am7 G/B C9 D9 I see my future when I look in your eyes Am7 G/B C9 D9 It took your love to make my heart come alive Am7 G/B C9 D9 Cause I lived my life lieving all love is blind Am7 G/B C9 D9 But everything about you is telling me this time
G D Em C Am D Forever This time I know and there's no doubt in my mind. G D G Am Forever. Until my life is through, G/B C D C9 Girl I'll be loving you forever 2x
 
d#|--3--2-----3--2-----3--2---------3----------------------------------| 
A#|--------3--------3--------3------3----------------------------------| 
F#|------------------------------0--0----------------------------------| 
C#|---------------------------------0----------------------------------| 
G#|---------------------------------3----------------------------------| 
D#|--------------------------------------------------------------------| 

roll up this ad to continue

share this page

See Also: