E-Chords
King Tuff

Headbanger(Chords)

King Tuff

roll up this ad to continue

Key: F#
 

Tuning: Standard 

Chords 
       F#   D   A   Em 
e|----------2-----------------------------------------------------------------| 
B|----------3-----------------------------------------------------------------| 
G|----------2---2-------------------------------------------------------------| 
D|-----4--------2----2--------------------------------------------------------| 
A|-----4--------0----2--------------------------------------------------------| 
E|-----2-------------0--------------------------------------------------------| 

Intro Riff x2 
e|---------------------------------------------------------------------------| 
B|-------------------------15-15-15-15-15-15-15-15--14-14-15-15-14-14-15-15--| 
G|-------------------------14-14-16-16-14-14-16-16--14-14-14-14-14-14-14-14--| 
D|-13-13-14-14-13-13-14-14---------------------------------------------------| 
A|-16-16-16-16-16-16-16-16---------------------------------------------------| 
E|---------------------------------------------------------------------------| 

e|------------------------------------------| 
B|------------------------------------------| 
G|-13-13-14-14-13-13-14-14------------------| 
D|-14-14-14-14-14-14-14-14------------------| 
A|-14-14-14-14-14-14-14-14------------------| 
E|------------------------------------------| 
verse 1 F# D A Em You and me we got a true connection F# D A Em I knew it when I saw your record collection F# D You had Sabbath and Priest and Number of the Beast A Em It was heavy metal perfection F# D A Em Then you went south of heaven and my love went to 11 when you Chorus A Em F# D Bang your little head, Bang your little head A Em F# D Riff Bang your little head, Bang your little head
Riff 
e|---------------------------------------------------------------------------| 
B|---------------------------------------------------------------------------| 
G|---------------------------------------------------------------------------| 
D|---------------------------------------------------------------------------| 
A|-----4-5--4h5p4-----------4-5--4h5p4--------------4-5--4h5p4---------------| 
E|-2/5-------------5p4-2/5-------------5p4-2-2-2/5-------------5p4-----------| 

e|---------------------------------------------------------------------------| 
B|---------------------------------------------------------------------------| 
G|---------------------------------------------------------------------------| 
D|---------------------------------------------------------------------------| 
A|---------4-5---4h5p4-------------------------------------------------------| 
E|-2-2-2/5--------------5p4--------------------------------------------------| 


Intro Riff x2 
e|---------------------------------------------------------------------------| 
B|-------------------------15-15-15-15-15-15-15-15--14-14-15-15-14-14-15-15--| 
G|-------------------------14-14-16-16-14-14-16-16--14-14-14-14-14-14-14-14--| 
D|-13-13-14-14-13-13-14-14---------------------------------------------------| 
A|-16-16-16-16-16-16-16-16---------------------------------------------------| 
E|---------------------------------------------------------------------------| 

e|------------------------------------------| 
B|------------------------------------------| 
G|-13-13-14-14-13-13-14-14------------------| 
D|-14-14-14-14-14-14-14-14------------------| 
A|-14-14-14-14-14-14-14-14------------------| 
E|------------------------------------------| 
verse 2 F# D A Em Me and you will never lose the magic F# D A Em Running free in ecstasy and chains and leather jackets F# D A Em Shaking off our clothes on the grave where rock and roll was buried F# D A Em Making out you make me shout in the back of the cemetery when you Chorus A Em F# D Bang your little head, Bang your little head A Em F# D Riff Bang your little head, Bang your little head
e|---------------------------------------------------------------------------| 
B|---------------------------------------------------------------------------| 
G|------6-7-6h7p6---------6-7-6h7p6-------------6-7--------------------------| 
D|--4/7-----------7-6-4/7-----------7-6-4-4-4/7------------------------------| 
A|---------------------------------------------------------------------------| 
E|---------------------------------------------------------------------------| 

Solo 
e|---------------------------------------------------------------------------| 
B|---------------------------------------------------------------------------| 
G|--7b9--4-4b6-4b6-4b6-4-2---------------------------------------------------| 
D|-------------------------4-2h4p2-------------------------------------------| 
A|---------------------------------4-2/7-2-2h4p2-----------------------------| 
E|-----------------------------------------------5-4-2-----------------------| 

e|--------------------------------------------------------------------------------| 
B|--------------------------------------------------------------------------------| 
G|--------------------------------------------------------------------------------| 
D|--------------------------------------------------------------------------------| 
A|-----4-5-4h5p4----------4-5-4h5p4---------4-5--4h5p4-----------4-5-4h5p4--------| 
E|-2/5-----------5p4-2/5------------5p4-2/5-------------5p4--2/5------------5p4---| 
Chorus A Em F# D Bang your little head, Bang your little head A Em F# D Bang your little head, Bang your little head A Em F# D Bang your little head, Bang your little head A Em F# D Riff Bang your little head, Bang your little head
Riff 
e|---------------------------------------------------------------------------| 
B|---------------------------------------------------------------------------| 
G|---------------------------------------------------------------------------| 
D|---------------------------------------------------------------------------| 
A|-----4-5-5-4h5p4---------4-5-5-4h5p4-------------4-5-5-4h5p4---------------| 
E|-2/5-------------5p4-2/5-------------5p4-2-2-2/5-------------5p4-----------| 

e|---------------------------------------------------------------------------| 
B|---------------------------------------------------------------------------| 
G|---------------------------------------------------------------------------| 
D|---------------------------------------------------------------------------| 
A|---------4-5-5-4h5p4-------------------------------------------------------| 
E|-2-2-2/5--------------5p4--------------------------------------------------| 


e|---------------------------------------------------------------------------| 
B|-------------------------15-15-15-15-15-15-15-15--14-14-15-15-14-14-15-15--| 
G|-------------------------14-14-16-16-14-14-16-16--14-14-14-14-14-14-14-14--| 
D|-13-13-14-14-13-13-14-14---------------------------------------------------| 
A|-16-16-16-16-16-16-16-16---------------------------------------------------| 
E|---------------------------------------------------------------------------| 

e|------------------------------------------| 
B|------------------------------------------| 
G|-13-13-14-14-13-13-14-14------------------| 
D|-14-14-14-14-14-14-14-14------------------| 
A|-14-14-14-14-14-14-14-14------------------| 
E|------------------------------------------| 

e|---------------------------------------------------------------------------| 
B|-------------------------15-15-15-15-15-15-15-15--14-14-15-15-14-14-15-15--| 
G|-------------------------14-14-16-16-14-14-16-16--14-14-14-14-14-14-14-14--| 
D|-13-13-14-14-13-13-14-14---------------------------------------------------| 
A|-16-16-16-16-16-16-16-16---------------------------------------------------| 
E|---------------------------------------------------------------------------| 

e|------------------------------------------| 
B|------------------------------------------| 
G|-13-13-14-14-13-13-14-14------------------| 
D|-14-14-14-14-14-14-14-14------------------| 
A|-14-14-14-14-14-14-14-14------------------| 
E|------------------------------------------| 

e|------------------| 
B|------------------| 
G|------------------| 
D|-4----------------| 
A|-4----------------| 
E|-2----------------| 
************************************ | / slide up | \ slide down | h hammer-on | p pull-off | ~ vibrato | + harmonic | x Mute note | b Bend | pb Pre-bend | br Bend release | pbr Pre-bend release | brb Bend release bend ************************************
share this page

See Also: