E-Chords
King Tuff

Black Moon Spell(Chords)

King Tuff

roll up this ad to continue

Key: A
Intro pt 2 
E|-----------------------------------------------------------|-- 
B|-----------------------------------------------------------|-- 
G|-----------------------------------------------------------|-- 
D|-----------------------------------------------------------|-- 
A|-----------5--6--7--10p0--10p0--10p0--10p0--10p0p10--0-----|-- 
E|--5--5--8-----------------------------------------------8--|-- 

Intro pt 2: 

E|------------------------------|-- 
B|------------------------------|-- 
G|------------------------------|-- 
D|------------------------------|-- 
A|-----------5--6--7--9p0--9p0--|-- 
E|--5--5--8---------------------|-- 
Basically same as rift 1 but on f# instead of G.... I think you play Rift 1 twice, Rift 2 once, then rift 1 again, repeat... A G I feel the sickness in your heart A G Cuz you drank my witch's brew A G You were doomed right from the start A G And you know i feel it too F G A Oh, got a black moon spell on you F G Oh, and you know... Main Rift When your heart starts beating, Baby you'll be dreamin Baby you'll be dreamin In a black moon spell Baby you'll be dreamin Baby you'll be dreamin Rinse wash repeat I see the evil in your mind And you don't know what to do I feel the same way all the time Like someone put a curse on you Oh, got a black moon spell on you Oh, and you know... When your heart starts beating, Baby you'll be dreamin Baby you'll be dreamin In a black moon spell Baby you'll be dreamin Baby you'll be dreamin In a black moon spell Baby you'll be dreamin Baby you'll be dreaminIn a black moon spell Baby you'll be dreamin Baby you'll be dreamin
share this page

See Also: