E-Chords
King Gizzard And The Lizard Wizard

roll up this ad to continue

Key: D
Intro: D A C G

e|-----------------------------| 
B|-7---7--5---5--5---5--3---3--| 
G|---7------6------5------4----| 
D|-----------------------------| 
A|-----------------------------| 
E|-----------------------------| 
D A C G Bone, bone D A C G Bone
verse 1 D A C G Heads and toes, feet and head, carry on to be fed D A C G Any dog can't chew off of my bone D Am C G And all my wine is gonna turn into blood D A C G When my name is called, I'm just a pile of bone C G When I'm gone, tell 'em that what will be inside my head
e|-----------------------------| 
B|-7---7--5---5--5---5--3---3--| 
G|---7------6------5------4----| 
D|-----------------------------| 
A|-----------------------------| 
E|-----------------------------| 
D A C G Bone, bone D A C G Bone
verse 2 D A C G Fingernail, chest and feet, carry on, good to eat D A C G Any dog can't chew off of my bone D Am C G And all my wine is gonna turn into blood D A C G When my gun is shot, I'm just a pile of bone C G When I'm gone, tell 'em that what will be inside my head D A All my stitches can't sow C G If heaven is a place I know, I want you to keep my bones
e|-----------------------------| 
B|-7---7--5---5--5---5--3---3--| 
G|---7------6------5------4----| 
D|-----------------------------| 
A|-----------------------------| 
E|-----------------------------| 
D A C G Bone, bone D A C G Bone bone D Am C G Bone, bone D A C G Bone
C G If heaven is a place I know, I want you to keep my bones D A all the stitches can't sow C G When I'm gone, tell 'em that what will be inside my head
e|-----------------------------| 4x 
B|-7---7--5---5--5---5--3---3--| 
G|---7------6------5------4----| Flute plays the notes on this line after two rounds 
D|-----------------------------| 
A|-----------------------------| 
E|-----------------------------| 
OUTRO D A C G Bone, bone D A C G Bone bone D A C G Bone, bone D A C G Bone End on D
share this page

See Also: