E-Chords
King Gizzard And The Lizard Wizard

Am I In Heaven(Chords)

King Gizzard And The Lizard Wizard

roll up this ad to continue

Key: F#
verse 1  
F#        E          F#              E          F#           E          F#  
I've got ideas in my brain about the end of the world that I won't even say  
E  
F#           E                     F#             E           F#         
When all the bricks that built our brains will be turned into sand by the   
E       F#  
eternal wave  
E  

F#       E        F#                E    F# 
Oh if we save her we'll live on a star because 
        E      F#        E  
Mother nature made everybody else so far 

MAIN GUITAR RIFF  
   F#5  
e|---------------------------------------------------------------|  
B|---------------------------2--2----------------4--4brbr-2--2---|  
G|---------------------------2--2----------------4--4brbr-2--2---|  
D|---------------------------------------------------------------|  
A|---------------------------------------------------------------|  
E|-2-2-2-2-2-2-2-2-2-2-2-2-2---------2-2-2-2-2-2-----------------|  

   F#5                                          E  
e|----------------------------------------------0----------------|  
B|----------------------------------------------0----------------|  
G|---------------------------2------------------1----------------|  
D|-4-------------2-2-3-3-4-4----4---------------2----------------|  
A|---2-2-3-3-4-4--------------------------------2----------------|  
E|---------------------------------------------------------------| 
Pre-Chorus F# E Am I in heaven? F# E Am I in heaven? F# E Am I in heaven? F# E Am I in heaven? MAIN GUITAR RIFF F#5 F#5 F#5 E
F#m B F# F#m B F# Well everybody that I knew has jumped right in and taken over you F#m B F# And I swear even the ocean's changed it's hue F#m B F# F#m The lesson rings again, repeats within my brain B F# A B Let's all put her to the test, c'mon suck our mother's breast
MAIN GUITAR RIFF F#5 F#5 F#5 E
B F# F#m B F# Well everybody that I knew has jumped right in and taken over you F#m B F# And I swear even the ocean's changed it's hue F#m B F# F#m The lesson rings again, repeats within my brain B F# A B Let's all put her to the test, c'mon suck our mother's breast
INTERLUDE F#5 F#5 F#5 E Pre-Chorus F# E Am I in heaven? F# E Am I in heaven? F# E Am I in heaven? F# E Am I in heaven? F# E \ Ooh ooh \ 2x F# E / Ooh ooh / MAIN GUITAR RIFF F#5 F#5 F#5 F#5 E SOLO (3:04-3:13) F#5 BREAKDOWN B F# F#m B F# F#m B F#
F#m B F# F#m B F# Well everybody that I knew has jumped right in and taken over you F#m B F# And I swear even the ocean's changed it's hue F#m B F# F#m The lesson rings again, repeats within my brain B F# A B Let's all put her to the test, c'mon suck our mother's breast
SOLO (3:44-4:21) F#5 HARMONICA AND GUITAR SOLO (4:21-5:15) F#5 F#5 E F#5 F#5 E ONLY BASS AND DRUM (5:16-5:52) F#5 F#5 E F#5 F#5 E verse 2 F# E F# E F# E F# I've got ideas in my brain about the end of the world that I won't even say E F# E F# E F# When all the bricks that built our brains will be turned into sand by the E F# eternal wave E F# E F# E F# Oh if we save her we'll live on a star because E F# E Mother nature made everybody else so far Pre-Chorus F# E Am I in heaven? F# E Am I in heaven? F# E Am I in heaven? F# E Am I in heaven? OUTRO F# E F# E F#
 
   F#             F#add6  
e|-2----------2---2----|  
B|-----2----------4----|  
G|---------3------3----|  
D|----------------4----|  
A|---------------------|  
E|---------------------|
share this page

See Also: