E-Chords
Kid Rock

Let's Ride(Chords)

Kid Rock

roll up this ad to continue

Key: E
Intro  
  E5    D5 E5    D5|E5     D5|E5            ||x2 
----------|---------|---------|--------------| 
----------|---------|---------|--------------| 
--9-----7-|-9-----7-|-9-----7-|-9------------| 
--9-----7-|-9-----7-|-9-----7-|-9----------2-| 
--7-----5-|-7-----5-|-7-----5-|-7------------| 
----------|---------|---------|----0-3-0-3---| 
Verse 1; E5 D5 E5 D5 Used as a scapegoat, taped to the wall E5 D5 E5 Bruised and abused on some foreign soil E5 D5 E5 D5 Trained to kill, baby, that's what we do E5 D5 E5 And programmed to bleed red, white and blue
Em G D Asus2 C'mon and grab your guns, let's ride Em G D Asus2 And may your conscience be your guide, yeah, yeah, yeah Em G D Asus2 I'll say a prayer for you to make it through to the other side Em G A Tonight's the night, we fight or die, yeah
Em 
1Gt------------|-----------|---------------|---------------|x2 
----0----------|-----------|----0----------|---0----0--0---| 
----0--0-0-0-0-|---0--0--0-|----0--0-0-0-0-|--/4----2--0-0-| 
-------4-2-0-2-|---0--0--2-|-------4-2-0-2-|-------------2-| 
---------------|-----------|---------------|---------------| 
-0-------------|-----------|-0-------------|---------------| 

2Gt------------|-----------|---------------|---------------|x2 
---7b8-7-------|-----------|---7b8-7-------|-10b12-r10-8---| 
---------9-7-9-|---7--7--9-|---------9-7-9-|-------------9-| 
---------------|-----------|---------------|---------------| 
---------------|-----------|---------------|---------------| 
---------------|-----------|---------------|---------------| 

Verse 2: E5 D5 E5 D5 Grab your guns son, said we headed for war E5 D5 E5 Like your uncle JT done years before E5 D5 E5 D5 No pussy, no dope, this ain't Saigon E5 D5 E5 But keep your heads up for roadside bombs
Em G D Asus2 C'mon and grab your guns, let's ride Em G D Asus2 And may your conscience be your guide, yeah, yeah, yeah Em G D Asus2 I'll say a prayer for you to make it through to the other side Em G A Tonight's the night, we fight or die
Bridge: C G D Asus2 Even in darkness, you're my strength, my soul, my will to survive C G A But in this fight I stand ready to die, yeah
Solo Guitar  
  Em    |  G     |  D     |  G         |  Em    |  G     | A 
--------|--------|--------|------------|--------|--------|-10----10----| 
-7h8--8-|-7h8--8-|-8p7--7-|-7h8--8-----|-7h8--8-|-7h8--8-|-10b12-10b12-| 
-7h9--9-|-7----9-|-7----7-|-7----7--7--|-7h9--9-|-7----7-|-------------| 
-7h9--9-|-7h9--9-|-9p7--7-|-7h9--9--9--|-7h9--9-|-7h9--9-|-------------| 
--------|--------|--------|---------10-|--------|--------|-------------| 
--------|--------|--------|------------|--------|--------|-------------| 

                                                                    (Em) 
-10-----------------------------------------------------------------| 
-10b12r10p8---8-10-8b10r8-------------------------------------------| 
------------9-------------9-7-9p7---7--9p7--------------------------| 
----------------------------------9--------9-5-7p5---5--------------| 
---------------------------------------------------7----7p5---------| 
------------------------------------------------------------7-7p5\3-|(0) 
Em G D Asus2 C'mon and grab your guns, let's ride Em G D Asus2 And may your conscience be your guide, yeah, yeah, yeah Em G D Asus2 I'll say a prayer for you to make it through to the other side Em G D Asus2 Tonight's the night, tonight's the night Em G D Asus2 C'mon and grab your guns, let's ride Em G D Asus2 And may your conscience be your guide, oh
Outro: Em G D Asus2 Em G A C'mon c'mon c'mon c'mon c'mon c'mon yeah! Em G D Asus2 Oh oh oh oh whoa oh oh oh oh whoa (x3) Em G Asus2 Em Oh oh oh oh whoa oh, yeah ohhh, yeah
share this page

See Also: