E-Chords
Kevi Jonny

Dona Encrenca(Chords)

Kevi Jonny

Key: G
Intro Dm F C G 

Solo Introdução 

Parte 1 De 2 

E|--------------------------------------| 
B|---------6/10--6~----------6/10--6-5~-| 
G|-7-7-7-7-----------5-5-5-5------------| 
D|--------------------------------------| 
A|--------------------------------------| 
E|--------------------------------------|
E|--------------------------------------| 
B|-3/5-5--8-8-5-------5-6-5-------------| 
G|--------------7---7--------5-5h7------| 
D|--------------------------------------| 
A|--------------------------------------| 
E|--------------------------------------|
Parte 2 De 2
E|--------------------------------------| 
B|---------6/10--6~----------6/10--6-5~-| 
G|-7-7-7-7-----------5-5-5-5------------| 
D|--------------------------------------| 
A|--------------------------------------| 
E|--------------------------------------|
E|------------8-7-----------------------| 
B|-3/5-5--8-8---------5-6-5-------------| 
G|------------------7--------5-5h7------| 
D|---------------------------------7~---| 
A|--------------------------------------| 
E|--------------------------------------|
Dm F C Reclama da cueca e da toalha molhada G Dm Mas quando eu chorei foi ela que enxugou minhas lágrimas F C Critica o meu futebol e o meu barzinho, G Mas se eu to na deprê Ela me dá carinho Dm F Tá sempre com razão C Reclama até do que eu não fiz G E até a minha mãe concorda com o que ela diz Dm F C Mas quando tá de bem ela é um amorzinho G F G Eu tenho a mulher mais top do Brasil Dm Ela pode ser bruta F Ela pode ser brava C Mas eu não largo G A minha dona encrenca por nada

roll up this ad to continue

share this page

See Also: